Artists by letter: A B C D E F G H I J K L M N O P Q R S T U V W X Y Z 0-9

 
Five Becomes Four
-------------------------------------------------------------------------------
			 FIVE BECOMES FOUR - Yellowcard
-------------------------------------------------------------------------------
Tabbed by: Anthinator
Email: [email protected]

Here is the complete tab for Yellowcard's "Five Becomes Four." I've tried to organize 
as
neatly as possible. Guitar one parts are at the top and guitar two is at the bottom. 
this awesome
track from their latest album "Paper Walls."

Tuning: E A D G b e

-=GUITAR ONE=- (Ryan Mendez)

INTRO: 0:00-0:02
e|-----------------------------------------------|
B|---13---13---13---13---13---13---13---13-------|
G|-9----9----9----9----9----9----9----9----------|
D|-----------------------------------------------|
A|-----------------------------------------------|
E|-----------------------------------------------|

INTRO PART ONE: 0:03-0:12 "Needed some time so I could find..."
e|---------------------------------------------------------------------------------------|
B|---13---13---13---13----13----13----13----13---13---13---13---13----13----13---13---13-|
G|-9----9----9----9----10----10----10----10----0----0----0----0--------------------------|
D|-----------------------------------------------------------------10----10----9----9----|
A|---------------------------------------------------------------------------------------|
E|---------------------------------------------------------------------------------------|

e|-------------------------------------------------------------------------------|
B|---13---13----13----13----13----13---13---13---13---13---13---13---13---13-----|
G|-9----9----10----10----10----10----0----0----0----0----0----0----0----0--------|
D|-------------------------------------------------------------------------------|
A|-------------------------------------------------------------------------------|
E|-------------------------------------------------------------------------------|

INTRO PART TWO: 0:13-0:34
e|-------------------------------------------------------------------------------|
B|-------------------------------------------------------5----5----3----3----3p1-|
G|----------------------------------------------------55---55---55---55---55-----|
D|-7777777777777777-2222222222222222-3333333333333333----------------------------|
A|-7777777777777777-3333333333333333-3333333333333333----------------------------|
E|-5555555555555555-0000000000000000-1111111111111111----------------------------|
						      ..   ..   ..   ..   ..
e|-------------------------------------------------------------------------------|
B|-------------------------------------------------------5----5----3----3----3p1-|
G|----------------------------------------------------55---55---55---55---55-----|
D|-7777777777777777-2222222222222222-3333333333333333----------------------------|
A|-7777777777777777-3333333333333333-3333333333333333----------------------------|
E|-5555555555555555-0000000000000000-1111111111111111----------------------------|
						      ..   ..   ..   ..   ..

VERSE: 0:34-0:54 "I'm ridin' it out; this storm that you brought in..."
e|---------------------------------------------------------------------------------------------|
B|----13----13----13----13----13----13----13----13----13----13----13----13---13---13---13---13-|
G|-------------------------------------------------10----10----10----10----0----0----0----0----|
D|-------------------------10----10----10----10------------------------------------------------|
A|-12----12----12----12------------------------------------------------------------------------|
E|---------------------------------------------------------------------------------------------|

e|---------------------------------------------------------------------------------------------|
B|----13----13----13----13----13----13----13----13----13----13----13----13---13---13---13---13-|
G|-------------------------------------------------10----10----10----10----0----0----0----0----|
D|-------------------------10----10----10----10------------------------------------------------|
A|-12----12----12----12------------------------------------------------------------------------|
E|---------------------------------------------------------------------------------------------|

e|---------------------------------------------------------------------------------------|
B|---13---13---13---13----13----13----13----13---13---13---13---13----13----13---13---13-|
G|-9----9----9----9----10----10----10----10----0----0----0----0--------------------------|
D|-----------------------------------------------------------------10----10----9----9----|
A|---------------------------------------------------------------------------------------|
E|---------------------------------------------------------------------------------------|

e|---------------------------------------------------------------------------------------|
B|---13---13---13---13----13----13----13----13---13---13---13---13---13---13---13---13---|
G|-9----9----9----9----10----10----10----10----0----0----0----0----0----0----0----0------|
D|---------------------------------------------------------------------------------------|
A|---------------------------------------------------------------------------------------|
E|---------------------------------------------------------------------------------------|

CHORUS: 0:55-1:15 "Did you run away? Did you fall apart?"
e|---------------------------------------------------------------------------|
B|---------------------------------------------------------------------------|
G|---------------------------------------------------------------------------|
D|-7777777777777777-2222222222222222-3333333333333333-5555555555555555-------|
A|-7777777777777777-3333333333333333-3333333333333333-5555555555555555-------|
E|-5555555555555555-0000000000000000-1111111111111111-3333333333333333-------|

e|---------------------------------------------------------------------------|
B|---------------------------------------------------------------------------|
G|---------------------------------------------------------------------------|
D|-7777777777777777-2222222222222222-3333333333333333-5555555555555555-------|
A|-7777777777777777-3333333333333333-3333333333333333-5555555555555555-------|
E|-5555555555555555-0000000000000000-1111111111111111-3333333333333333-------|

VERSE 2: 1:15-1:36 "Try and put aside your history and pride..."
e|---------------------------------------------------------------------------------------------|
B|----13----13----13----13----13----13----13----13----13----13----13----13---13---13---13---13-|
G|-------------------------------------------------10----10----10----10----0----0----0----0----|
D|-------------------------10----10----10----10------------------------------------------------|
A|-12----12----12----12------------------------------------------------------------------------|
E|---------------------------------------------------------------------------------------------|

e|---------------------------------------------------------------------------------------------|
B|----13----13----13----13----13----13----13----13----13----13----13----13---13---13---13---13-|
G|-------------------------------------------------10----10----10----10----0----0----0----0----|
D|-------------------------10----10----10----10------------------------------------------------|
A|-12----12----12----12------------------------------------------------------------------------|
E|---------------------------------------------------------------------------------------------|

e|---------------------------------------------------------------------------------------|
B|---13---13---13---13----13----13----13----13---13---13---13---13----13----13---13---13-|
G|-9----9----9----9----10----10----10----10----0----0----0----0--------------------------|
D|-----------------------------------------------------------------10----10----9----9----|
A|---------------------------------------------------------------------------------------|
E|---------------------------------------------------------------------------------------|

e|---------------------------------------------------------------------------------------|
B|---13---13---13---13----13----13----13----13---13---13---13---13---13---13---13---13---|
G|-9----9----9----9----10----10----10----10----0----0----0----0----0----0----0----0------|
D|---------------------------------------------------------------------------------------|
A|---------------------------------------------------------------------------------------|
E|---------------------------------------------------------------------------------------|

PRE-CHORUS: 1:36
e|-----------------|
B|-----------------|
G|-12~-------------|
D|-x---------------|
A|-10~-------------|
E|-----------------|

CHORUS: 1:38-1:58 "Did you run away? Did you fall apart?"
e|---------------------------------------------------------------------------|
B|---------------------------------------------------------------------------|
G|---------------------------------------------------------------------------|
D|-7777777777777777-2222222222222222-3333333333333333-5555555555555555-------|
A|-7777777777777777-3333333333333333-3333333333333333-5555555555555555-------|
E|-5555555555555555-0000000000000000-1111111111111111-3333333333333333-------|

e|---------------------------------------------------------------------------|
B|---------------------------------------------------------------------------|
G|---------------------------------------------------------------------------|
D|-7777777777777777-2222222222222222-3333333333333333-5555555555555555-------|
A|-7777777777777777-3333333333333333-3333333333333333-5555555555555555-------|
E|-5555555555555555-0000000000000000-1111111111111111-3333333333333333-------|

BRIDGE: 1:59-2:24 5X
e|---------------------------------------------------------------------------|
B|---------------------------------------------------------------------------|
G|-9-999-9-5--7777-5--9-999-9-5--7777-5--------------------------------------|
D|-x-xxx-x-x--xxxx-x--x-xxx-x-x--xxxx-x--------------------------------------|
A|-7-777-7-3--5555-3--7-777-7-3--5555-3--------------------------------------|
E|---------------------------------------------------------------------------|

BRIDGE CONT'D: 2:24-2:46 "Just tell me why..."
e|---------------------------------------------------------------------------|
B|---------------------------------------------------------------------------|
G|-5-55-55--7-77-77--9-99-99--5-55-55--12-1212-1212--5-55-55-7-77-77-9-99-99-|
D|-x-xx-xx--x-xx-xx--x-xx-xx--x-xx-xx--x--x-x--x-x---x-xx-xx-x-xx-xx-x-xx-xx-|
A|-3-33-33--5-55-55--7-77-77--3-33-33--10-1010-1010--3-33-33-5-55-55-7-77-77-|
E|---------------------------------------------------------------------------|

e|---------------------------------------------------------------------------|
B|---------------------------------------------------------------------------|
G|-5-55-55--7-77-77--9-99-99--5-55-55--12-12~--------------------------------|
D|-x-xx-xx--x-xx-xx--x-xx-xx--x-xx-xx--x--x----------------------------------|
A|-3-33-33--5-55-55--7-77-77--3-33-33--10-10~--------------------------------|
E|---------------------------------------------------------------------------|

CHORUS: 2:46-3:07 "Did you run away? Did you fall apart?"
e|---------------------------------------------------------------------------|
B|---------------------------------------------------------------------------|
G|---------------------------------------------------------------------------|
D|-7777777777777777-2222222222222222-3333333333333333-5555555555555555-------|
A|-7777777777777777-3333333333333333-3333333333333333-5555555555555555-------|
E|-5555555555555555-0000000000000000-1111111111111111-3333333333333333-------|

"When you're all alone with a melody..."
e|-------------------------------------------------------------------------------|
B|-------------------------------------------------------5----5----3----3----3p1-|
G|----------------------------------------------------55---55---55---55---55-----|
D|-7777777777777777-2222222222222222-3333333333333333----------------------------|
A|-7777777777777777-3333333333333333-3333333333333333----------------------------|
E|-5555555555555555-0000000000000000-1111111111111111----------------------------|
						      ..   ..   ..   ..   ..

OUTRO: 3:07-3:30
e|---------------------------------------------------------------------------|
B|----8----8----8----8----8------8----8----8----8----8-----------------------|
G|--------------------------5--------------------------5---------------------|
D|-77---77---77---77---77-----55---55---55---55---55-------------------------|
A|---------------------------------------------------------------------------|
E|---------------------------------------------------------------------------|
   ..   ..   ..   ..   ..     ..   ..   ..   ..   ..

e|---------------------------------------------------------------------------|
B|----8----8----8----8----8------5----5--------------------------------------|
G|--------------------------5--------------7----7----7p5---------------------|
D|----------------------------55---55---55---55---55-------------------------|
A|-88---88---88---88---88----------------------------------------------------|
E|---------------------------------------------------------------------------|
   ..   ..   ..   ..   ..     ..   ..   ..   ..   ..

e|---------7----8----7----5--------------------------------------------------|
B|----8---------------------8----8----8----8----8----8-----------------------|
G|-----------------------------------------------------5---------------------|
D|-77---77---77---77---77-----55---55---55---55---55-------------------------|
A|---------------------------------------------------------------------------|
E|---------------------------------------------------------------------------|
   ..   ..   ..   ..   ..     ..   ..   ..   ..   ..

e|---------7----8----7----5--------------------------------------------------|
B|----8---------------------8----5----5--------------------------------------|
G|-----------------------------------------7----7\---------------------------|
D|----------------------------55---55---55---55------------------------------|
A|-88---88---88---88---88----------------------------------------------------|
E|---------------------------------------------------------------------------|
   ..   ..   ..   ..   ..     ..   ..   ..   ..

-=GUITAR TWO=- (Ryan Key)

INTRO: Does not play

INTRO PART TWO: 0:13-0:34
e|-------------------------------------------------------------------------------|
B|-------------------------------------------------------8----8----8----8----8---|
G|----------------------------------------------------55---55---55---55---55---5-|
D|-7777777777777777-2222222222222222-3333333333333333----------------------------|
A|-7777777777777777-3333333333333333-3333333333333333----------------------------|
E|-5555555555555555-0000000000000000-1111111111111111----------------------------|
						      ..   ..   ..   ..   ..

e|-------------------------------------------------------------------------------|
B|-------------------------------------------------------8----8----8----8----8---|
G|----------------------------------------------------55---55---55---55---55---5-|
D|-7777777777777777-2222222222222222-3333333333333333----------------------------|
A|-7777777777777777-3333333333333333-3333333333333333----------------------------|
E|-5555555555555555-0000000000000000-1111111111111111----------------------------|
						      ..   ..   ..   ..   ..

VERSE 1: 0:34-0:54 "It's gotta be, easy to see..."
e|-------------------------------------------------------------------------------|
B|-------------------------------------------------------------------------------|
G|-55-5-5-5--22-2-2-2--44-4-4-4--99-9-77-7--55-5-5-5--22-2-2-2-44-4-4-4-4444444--|
D|-xx-x-x-x--xx-x-x-x--xx-x-x-x--xx-x-xx-x--xx-x-x-x--xx-x-x-x-xx-x-x-x-xxxxxxx--|
A|-33-3-3-3--00-0-0-0--22-2-2-2--77-7-55-5--33-3-3-3--00-0-0-0-22-2-2-2-2222222--|
E|-------------------------------------------------------------------------------|

CHORUS: 0:55-1:15 "Did you run away? Did you fall apart?"
e|---------------------------------------------------------------------------|
B|---------------------------------------------------------------------------|
G|---------------------------------------------------------------------------|
D|-7777777777777777-2222222222222222-3333333333333333-5555555555555555-------|
A|-7777777777777777-3333333333333333-3333333333333333-5555555555555555-------|
E|-5555555555555555-0000000000000000-1111111111111111-3333333333333333-------|

e|---------------------------------------------------------------------------|
B|---------------------------------------------------------------------------|
G|---------------------------------------------------------------------------|
D|-7777777777777777-2222222222222222-3333333333333333-5555555555555555-------|
A|-7777777777777777-3333333333333333-3333333333333333-5555555555555555-------|
E|-5555555555555555-0000000000000000-1111111111111111-3333333333333333-------|

VERSE 2: 1:25-1:36 "The story goes nobody knows..."
e|-------------------------------------------------------------------------------|
B|-------------------------------------------------------------------------------|
G|-55-5-5-5--22-2-2-2--44-4-4-4--99-9-77-7--55-5-5-5--22-2-2-2-44-4-4-4-4444444--|
D|-xx-x-x-x--xx-x-x-x--xx-x-x-x--xx-x-xx-x--xx-x-x-x--xx-x-x-x-xx-x-x-x-xxxxxxx--|
A|-33-3-3-3--00-0-0-0--22-2-2-2--77-7-55-5--33-3-3-3--00-0-0-0-22-2-2-2-2222222--|
E|-------------------------------------------------------------------------------|

PRE-CHORUS: 1:36
e|-----------------|
B|-----------------|
G|-5~--------------|
D|-x---------------|
A|-3~--------------|
E|-----------------|

CHORUS: 1:38-1:58 "Did you run away? Did you fall apart?"
e|---------------------------------------------------------------------------|
B|---------------------------------------------------------------------------|
G|---------------------------------------------------------------------------|
D|-7777777777777777-2222222222222222-3333333333333333-5555555555555555-------|
A|-7777777777777777-3333333333333333-3333333333333333-5555555555555555-------|
E|-5555555555555555-0000000000000000-1111111111111111-3333333333333333-------|

e|---------------------------------------------------------------------------|
B|---------------------------------------------------------------------------|
G|---------------------------------------------------------------------------|
D|-7777777777777777-2222222222222222-3333333333333333-5555555555555555-------|
A|-7777777777777777-3333333333333333-3333333333333333-5555555555555555-------|
E|-5555555555555555-0000000000000000-1111111111111111-3333333333333333-------|

BRIDGE: 1:59-2:24 "Remember the line, never say die..."
e|---------------------------------------------------------------------------|
B|---------------------------------------------------------------------------|
G|---------------------------------------------------------------------------|
D|-2222-------------5555-------------2222-------------5555-------------------|
A|-3333-------------7777-------------3333-------------7777-------------------|
E|-1111-------------5555-------------1111-------------5555-------------------|

e|---------------------------------------------------------------------------|
B|---------------------------------------------------------------------------|
G|---------------------------------------------------------------------------|
D|-2222-------------5555-------------2222-22222-------5555-55555-------------|
A|-3333-------------7777-------------3333-33333-------7777-77777-------------|
E|-1111-------------5555-------------1111-11111-------5555-55555-------------|

e|---------------------------------------------------------------------------|
B|---------------------------------------------------------------------------|
G|---------------------------------------------------------------------------|
D|-2222-22222-------5555-55555555--------------------------------------------|
A|-3333-33333-------7777-77777777--------------------------------------------|
E|-1111-11111-------5555-55555555--------------------------------------------|

BRIDGE CONT'D: 2:24-2:46 3X "Just tell me why"	    4TH TIME
e|-------------------------------------|-------------------------------------|
B|-------------------------------------|-------------------------------------|
G|-------------------------------------|-------------------------------------|
D|-2-22-22--3-33-33--5-55-55--7-77-77--|-3---3~------------------------------|
A|-3-33-33--3-33-33--5-55-55--7-77-77--|-3---3~------------------------------|
E|-0-00-00--1-11-11--3-33-33--5-55-55--|-1---1~------------------------------|

CHORUS: 2:46-3:07 "Did you run away? Did you fall apart?"
e|---------------------------------------------------------------------------|
B|---------------------------------------------------------------------------|
G|---------------------------------------------------------------------------|
D|-7777777777777777-2222222222222222-3333333333333333-5555555555555555-------|
A|-7777777777777777-3333333333333333-3333333333333333-5555555555555555-------|
E|-5555555555555555-0000000000000000-1111111111111111-3333333333333333-------|

"When you're all alone with a melody..."
e|-------------------------------------------------------------------------------|
B|-------------------------------------------------------8----8----8----8----8---|
G|----------------------------------------------------55---55---55---55---55---5-|
D|-7777777777777777-2222222222222222-3333333333333333----------------------------|
A|-7777777777777777-3333333333333333-3333333333333333----------------------------|
E|-5555555555555555-0000000000000000-1111111111111111----------------------------|
						      ..   ..   ..   ..   ..

OUTRO: 3:07-3:30 7X                           8TH TIME
e|-------------------------------|-------------------------------------------|
B|----8----8----8----8----8------|----8----8----8-----8\---------------------|
G|-55---55---55---55---55---5----|-55---55---55---55-------------------------|
D|-------------------------------|-------------------------------------------|
A|-------------------------------|-------------------------------------------|
E|-------------------------------|-------------------------------------------|
   ..   ..   ..   ..   ..          ..   ..   ..   ..

| /  slide up
| \  slide down
| h  hammer-on
| p  pull-off
| ~  vibrato
| +  harmonic
| x  Mute note
===============================================================================
 
 
Yellowcard - Five Becomes Four :: indexed at Ultimate Guitar.
Five Becomes Four tabs @ 911Tabs

About the artist behind Five Becomes Four:

Yellowcard is an alternative rock multi-platinum selling band from Jacksonville, Florida. Their music features a rare contribution to the genre, incorporating the use of a violin.

The band is not currently active and is on a self-described "indefinite hiatus."

Indexed at Wikipedia.

Show us your talent, perform Five Becomes Four!

Here you can post a video or audio performance. Tell me more ...
Where can we find your performance? Tell me more ...
Your comment:
Please, log in to post your performance.