Artists by letter: A B C D E F G H I J K L M N O P Q R S T U V W X Y Z 0-9

 
Empty Apartment Acoustic
YELLOWCARD - Empty Apartment Acoustic
 
Here are the tabs for VERSE, CHORUS, BRIDGE and SOLO's, or just everything. 
all chords used:

Am    - x02210
Cadd9 - x32030
G     - 320033
D/F#  - 2x0232
F     - 133211
Fm    - 133111
C     - x32010
C/B   - x20010

VERSE #1
chords: Am - Cadd9 - G - D/F# - F - Fm

e|-------------------------------------------------------------------------------------| x2
B|--------1---------1---------3---------3---------3---------3---------3---------3------|
G|------2----2----2----2----0----0----0----0----0----0----0----3----2----2----2----2---|
D|-------------------------------------------------------------------------------------|
A|---0---------0---------3---------3--------0h2----------------------------------------|
E|-----------------------------------------------------3---------2---------2-----------|

e|-----------------------------------------------------------------|
B|--------1---------1---------1---------1--------------------------|
G|------2----2----2----2----1----1----1----1-----------------------|
D|-----------------------------------------------------------------|
A|-----------------------------------------------------------------|
E|---1---------1---------1---------1---------1~~~~~~~~-------------|

e|-------------------------------------------------------------------------------------| x2
B|--------1---------1---------3---------3---------3---------3---------3---------3------|
G|------2----2----2----2----0----0----0----0----0----0----0----3----2----2----2----2---|
D|-------------------------------------------------------------------------------------|
A|---0---------0---------3---------3--------0h2----------------------------------------|
E|-----------------------------------------------------3---------2---------2-----------|

e|-----------------------------------------------------------------|
B|--------1---------1---------1---------1---------1---------1------|
G|------2----2----2----2----1----1----1----1----1----1----1----1---|
D|-----------------------------------------------------------------|
A|-----------------------------------------------------------------|
E|---1---------1---------1---------1---------1---------1-----------|

That's it for the first verse, after that follows the choros instantly.

CHORUS #1
chords: C - C/B - Am - F

e|-------------------------------------------------------------------------------------| x2
B|--------1---------1---------1---------1---------1---------1---------1---------1------|
G|------0----0----0----0----0----0----0----0----2----2----2----2----2----2----2----2---|
D|------------0h2-------------------------------------0h2------------------------------|
A|---3-------------------2---------2---------0-----------------------------------------|
E|---------------------------------------------------------------1---------1-----------|

That's it for the chorus, next is a solo, played by two guitars.
The rhythm guitar goes on after the chorus, if you listen to the song you'll figure it out!

SOLO #1 
chords: C - C/B - Am - F

(guitar 1)

e|---1---------------|------------------------------------------------------------------------------------| x2
B|---1---------------|-------1---------1---------3---------3---------3---------3---------3---------3------|
G|---2---------------|-----2----2----2----2----0----0----0----0----0----0----0----0----2----2----2----2---|
D|---3---------------|------------------------------------------------------------------------------------|
A|---3---------------|---0--------0---------3---------3--------0h2----------------------------------------|
E|---1---------------|----------------------------------------------------3---------2---------2-----------|

(guitar 2)
           e|------------------------------------------------------------------|
           B|------------------------------------------------------------------|
           G|------------------------------------------------------------------|
           D|---10/12-10-12~-----12-10-12-10~-------10-12-14~~---14-12-14-12---|
           A|-------------------------------------12---------------------------|
           E|------------------------------------------------------------------|

           e|------------------------------------------------------------------|
           B|------------------------------------------------------------------|
           G|-----------------12~----------------------------------------------|
           D|---12-10-12~~b------12-10-12--10---------10-10-10-9---------------|
           A|---------------------------------10/12---------------10-10/12~~---|
           E|------------------------------------------------------------------|

After the solo the second verse comes, witch is the same as the first but half shorter.

VERSE #2
chords: Am - Cadd9 - G - D/F# - F - Fm

e|-------------------------------------------------------------------------------------| x2
B|--------1---------1---------3---------3---------3---------3---------3---------3------|
G|------2----2----2----2----0----0----0----0----0----0----0----3----2----2----2----2---|
D|-------------------------------------------------------------------------------------|
A|---0---------0---------3---------3--------0h2----------------------------------------|
E|-----------------------------------------------------3---------2---------2-----------|

e|-----------------------------------------------------------------|
B|--------1---------1---------1---------1---------1---------1------|
G|------2----2----2----2----1----1----1----1----1----1----1----1---|
D|-----------------------------------------------------------------|
A|-----------------------------------------------------------------|
E|---1---------1---------1---------1---------1---------1-----------|

Then comes the second CHORUS.

CHORUS #2
chords: C - C/B - Am - F

e|-------------------------------------------------------------------------------------| x2
B|--------1---------1---------1---------1---------1---------1---------1---------1------|
G|------0----0----0----0----0----0----0----0----2----2----2----2----2----2----2----2---|
D|------------0h2-------------------------------------0h2------------------------------|
A|---3-------------------2---------2---------0-----------------------------------------|
E|---------------------------------------------------------------1---------1-----------|

then comes the bridge wich is a little more difficult.
It's also played by two guitars, one of them goes like this.

BRIDGE
chords: C - C/B - Am - F

e|---0-------------------0-------------------0-------------------1---------------------|
B|---1-------------------1-------------------1-------------------1---------------------|
G|---0-------------------0-------------------2-------------------2---------------------|
D|---2-------------------0-------------------2-------------------3---------------------|
A|---3-------------------2-------------------0-------------------3---------------------|
E|---------------------------------------------------------------1---------------------|

e|-------------------------------------------------------------------------------------| x2
B|---------1-------------------1-------------------1-------------------1---------------|
G|-------0----0--------------0----0--------------2----2--------------2----2------------|
D|-----2-------------------0-------------------2-------------------3-------------------|
A|---3----------3-x------2----------2-x------0----------0-x----------------------------|
E|---------------------------------------------------------------1----------1-x--------|

e|-------------------------------------------------------------------------------------|
B|---------1-------------------1-------------------1-------------------1-----------1---|
G|-------0----0--------------0----0--------------2----2--------------2----2-----2------|
D|-----2-------------------0-------------------2-------------------3-------------------|
A|---3----------3-x------2----------2-x------0----------0-x----------------------------|
E|---------------------------------------------------------------1-----------1---------|

Then there is another solo, wich is played by a violin.

SOLO #2 (guitar) 
chords: C - C/B - Am - F

e|-------------------------------------------------------------------------------------| x2
B|--------1-----------1-------1-----------1-------1-----------1-------1------------1---|
G|------0----0----0---------0----0----0---------2----2----2---------2----2-----2-------|
D|-------------------------------------------------------------------------------------|
A|---3---------3---------2---------2---------0---------0-------------------------------|
E|---------------------------------------------------------------1---------1-----------|

(violin) 

E|-----------------------------------------------------------------------------|
B|---------17~------17-18-17------------17-18-17-18-17-18-20-18-17-18----------|
G|---17-19-----17-19----------19-17--19-------------------------------19--17---|
D|-----------------------------------------------------------------------------|
A|-----------------------------------------------------------------------------|
E|-----------------------------------------------------------------------------|

E|------------------------------------------------------------20~~~------|
B|---------------------------------------17-18-20~~-----20~~-------------|
G|------17------------17-----------17-19-------------17------------------|
D|---17----17-17---17----17-17--17---------------------------------------|
A|-----------------------------------------------------------------------|
E|-----------------------------------------------------------------------|

CHORUS #3
chords: C - C/B - Am - F

e|-------------------------------------------------------------------------------------| x2
B|--------1---------1---------1---------1---------1---------1---------1---------1------|
G|------0----0----0----0----0----0----0----0----2----2----2----2----2----2----2----2---|
D|------------0h2-------------------------------------0h2------------------------------|
A|---3-------------------2---------2---------0-----------------------------------------|
E|---------------------------------------------------------------1---------1-----------|


OUTRO
chords: C - C/B - Am - F                                                                      At the end
                                                                                              play slowly
e|-------------------------------------------------------------------------------------| x2 |-------------|
B|--------1---------1---------1---------1---------1---------1---------1---------1------|    |---------1---|
G|------0----0----0----0----0----0----0----0----2----2----2----2----2----2----2----2---|    |-------0-----|
D|------------0h2-------------------------------------0h2------------------------------|    |----0h2------|
A|---3-------------------2---------2---------0-----------------------------------------|    |---3---------|
E|---------------------------------------------------------------1---------1-----------|    |-------------|

Hope you enjoy the song and playing the tab, goodluck!

 
 
Yellowcard - Empty Apartment Acoustic :: indexed at Ultimate Guitar.
Empty Apartment Acoustic tabs @ 911Tabs

About the artist behind Empty Apartment Acoustic:

Yellowcard is an alternative rock multi-platinum selling band from Jacksonville, Florida. Their music features a rare contribution to the genre, incorporating the use of a violin.

The band is not currently active and is on a self-described "indefinite hiatus."

Indexed at Wikipedia.

Show us your talent, perform Empty Apartment Acoustic!

Here you can post a video or audio performance. Tell me more ...
Where can we find your performance? Tell me more ...
Your comment:
Please, log in to post your performance.