Artists by letter: A B C D E F G H I J K L M N O P Q R S T U V W X Y Z 0-9

 
Back Home
=====================================================================
                        BACK HOME---YELLOWCARD
=====================================================================
                            
Copied by: Chaseman242
Album:Ocean Avenue
Credit to:  John Heward


Drop D

                            <==Gtr.1==>

[Intro]
e|----------------------------------------------------------------------|
b|---3-3-3--3-2-2-2-2---------------------------------------------------|
g|---4-4-4--4-2-2-2-2----14-14-14-x-x-12-12-11------7-7---------7-7-7-7-|
d|---4-4-4--4-2-2-2-2-----x--x--x-x-x--x--x-x-------7-7---------7-7-7-7-|
a|-2---------------------12-12-12-x-x-10-10-9-----5-5-5-0-0-0-0-5-5-5-5-|
D|--------------------0-------------------------5-5-5-5-0-0-0-0-5-5-5-5-|

Intro cont.
e|-------------------------------------------------------------------|
b|---3-3-3--3-2-2-2-2------------------------------------------------|
g|---4-4-4--4-2-2-2-2----14-14-14-x-x-12-12-11------7-7--------------|
d|---4-4-4--4-2-2-2-2-----x--x--x-x-x--x--x-x-------7-7--------------|
a|-2---------------------12-12-12-x-x-10-10-9-----5-5-5-0-0-0--5-5-0-|
D|--------------------0-------------------------5-5-5-5-0-0-0--5-4-0-|

[Verse]
e|-------------------------------------|
b|-------------------------------------|
g|-------------------------------------|
d|-7--7-7--7-7-7--7-7--7-7-7-x-x-7-7-7-|(x2)
a|-5--5-5--5-0-4--4-4--4-4-5-x-x-4-4-5-|
D|-------------------------------------|

[Pre-Chorus]
e|---------------------------------------------------------------|
b|---------------------------------------------------------------|
g|-2---2---2---2---0---0---0---0---2---2---2---2---0---0---0---0-|
d|---0---0---0---0---0---0---0---0---0---0---0---0---0---0---0---|
a|---------------------------------------------------------------|
D|---------------------------------------------------------------|

[Chorus]
e|--------------------------------------------------------------------|
b|--------------------------------------------------------------------|
g|--------------------------------------------------------------------|
d|-0-0-0-0-0-0-0-0--5-5-5-5-5-5-5-5--0-0-0-0-0-0-0-0--5-5-5-5-5-5-5-5-|
a|-0-0-0-0-0-0-0-0--5-5-5-5-5-5-5-5--0-0-0-0-0-0-0-0--5-5-5-5-5-5-5-5-|
D|-0-0-0-0-0-0-0-0--5-5-5-5-5-5-5-5--0-0-0-0-0-0-0-0--5-5-5-5-5-5-5-5-|

e|--------------------------------------------------------------------|
b|--------------------------------------------------------------------|
g|--------------------------------------------------------------------|
d|-0-0-0-0-0-0-0-0--5-5-5-5-5-5-5-5--7-7-7-7-7-7-7-7--5-5-5-5-5-5-5-5-|
a|-0-0-0-0-0-0-0-0--5-5-5-5-5-5-5-5--7-7-7-7-7-7-7-7--5-5-5-5-5-5-5-5-|
D|-0-0-0-0-0-0-0-0--5-5-5-5-5-5-5-5--7-7-7-7-7-7-7-7--5-5-5-5-5-5-5-5-|

Interlude: Repeat the intro cont. part x1

[Verse]
e|-------------------------------------|
b|-------------------------------------|
g|-------------------------------------|
d|-7--7-7--7-7-7--7-7--7-7-7-x-x-7-7-7-|(x2)
a|-5--5-5--5-0-4--4-4--4-4-5-x-x-4-4-5-|
D|-------------------------------------|

[Pre-Chorus]
e|---------------------------------------------------------------|
b|---------------------------------------------------------------|
g|-2---2---2---2---0---0---0---0---2---2---2---2---0---0---0---0-|
d|---0---0---0---0---0---0---0---0---0---0---0---0---0---0---0---|
a|---------------------------------------------------------------|
D|---------------------------------------------------------------|

[Chorus]
e|--------------------------------------------------------------------|
b|--------------------------------------------------------------------|
g|--------------------------------------------------------------------|
d|-0-0-0-0-0-0-0-0--5-5-5-5-5-5-5-5--0-0-0-0-0-0-0-0--5-5-5-5-5-5-5-5-|
a|-0-0-0-0-0-0-0-0--5-5-5-5-5-5-5-5--0-0-0-0-0-0-0-0--5-5-5-5-5-5-5-5-|
D|-0-0-0-0-0-0-0-0--5-5-5-5-5-5-5-5--0-0-0-0-0-0-0-0--5-5-5-5-5-5-5-5-|

e|--------------------------------------------------------------------|
b|--------------------------------------------------------------------|
g|--------------------------------------------------------------------|
d|-0-0-0-0-0-0-0-0--5-5-5-5-5-5-5-5--7-7-7-7-7-7-7-7--5-5-5-5-5-5-5-5-|
a|-0-0-0-0-0-0-0-0--5-5-5-5-5-5-5-5--7-7-7-7-7-7-7-7--5-5-5-5-5-5-5-5-|
D|-0-0-0-0-0-0-0-0--5-5-5-5-5-5-5-5--7-7-7-7-7-7-7-7--5-5-5-5-5-5-5-5-|

Breakdown
e|------------------|
b|------------------|
g|------------------|
d|-0---------0------|
a|-0---0-0---0------|
D|-0---0-0---0--12/-|
       . .
       
[Bridge]
e|------------------------------------|
b|------------------------------------|
g|------------------------------------|
d|-9-9-9--7-7-7-0-0--5-5-5--------0-0-|(x3)
a|-9-9-9--7-7-7-0-0--5-5-5--5-5-5-0-0-|
D|-9-9-9--7-7-7-0-0--5-5-5--4-4-4-0-0-|

Bridge cont.
e|---------------------------------------------------------|
b|---------------------------------------------------------|
g|---------------------------------------------------------|
d|-9-9-9--7-7-7-0-0----------------------------------------|
a|-9-9-9--7-7-7-0-0--5-5--0~~~~~~~~~~~~--------------------|
D|-9-9-9--7-7-7-0-0--5-4--0~~~~~~~~~~~~---5~-----0~-----5~-|

[Chorus]
e|--------------------------------------------------------------------|
b|--------------------------------------------------------------------|
g|--------------------------------------------------------------------|
d|-0-0-0-0-0-0-0-0--5-5-5-5-5-5-5-5--7-7-7-7-7-7-7-7--5-5-5-5-5-5-5-5-|
a|-0-0-0-0-0-0-0-0--5-5-5-5-5-5-5-5--7-7-7-7-7-7-7-7--5-5-5-5-5-5-5-5-|
D|-0-0-0-0-0-0-0-0--5-5-5-5-5-5-5-5--7-7-7-7-7-7-7-7--5-5-5-5-5-5-5-5-|

e|--------------------------------------------------------------------|
b|--------------------------------------------------------------------|
g|--------------------------------------------------------------------|
d|-0-0-0-0-0-0-0-0--5-5-5-5-5-5-5-5--0-0-0-0-0-0-0-0--5-5-5-5-5-5-5-5-|
a|-0-0-0-0-0-0-0-0--5-5-5-5-5-5-5-5--0-0-0-0-0-0-0-0--5-5-5-5-5-5-5-5-|
D|-0-0-0-0-0-0-0-0--5-5-5-5-5-5-5-5--0-0-0-0-0-0-0-0--5-5-5-5-5-5-5-5-|

e|--------------------------------------------------------------------|
b|--------------------------------------------------------------------|
g|--------------------------------------------------------------------|
d|-0-0-0-0-0-0-0-0--5-5-5-5-5-5-5-5--7-7-7-7-7-7-7-7--5-5-5-5-5-5-5-5-|
a|-0-0-0-0-0-0-0-0--5-5-5-5-5-5-5-5--7-7-7-7-7-7-7-7--5-5-5-5-5-5-5-5-|
D|-0-0-0-0-0-0-0-0--5-5-5-5-5-5-5-5--7-7-7-7-7-7-7-7--5-5-5-5-5-5-5-5-|

[Outro]
e|-----------------------------------------------------------------|
b|---3-3-3--3-2-2-2-2----------------------------------------------|
g|---4-4-4--4-2-2-2-2----14-14-14-x-x-12-12-11------7-7------------|
d|---4-4-4--4-2-2-2-2-----x--x--x-x-x--x--x-x-------7-7------------|
a|-2---------------------12-12-12-x-x-10-10-9-----5-5-5-0-0--5-5-0~|
D|--------------------0-------------------------5-5-5-5-0-0--5-4-0~|



=====================================================================
                        BACK HOME---YELLOWCARD
=====================================================================
                            <==Gtr.2==>


[Intro] (after :10 seconds)
e|---------------------------------------------------------------|
b|---------------------------------------------------------------|
g|-7-7-7-7--6-6-6----11-11-x-x-9-9--7----------------------------|
d|-x-x-x-x--x-x-x-----x--x-x-x-x-x--x----5-5-5-5-----------------|
a|-5-5-5-5--4-4-4-----9--9-x-x-7-7--5----5-5-5-5--0-0-0-0--5-5-0-|
D|-----------------0------------------0--5-5-5-5--0-0-0-0--5-4-0-|

[Verse] (hit these haromonic notes right after intro, when gtr.1 plays first chord)
note-this part isn't in any other tab and if you listen to the left speaker you'll ear it
e|----|
b|-7*-|
g|-7*-|
d|----|
a|----|
D|----|

[Pre-Chorus]
e|--------------------------------------------|
b|--------------------------------------------|
g|-7-7-7-7-7--7-7-7-7-7--7-7-7-7-7--7-7-7-7-7-|
d|-7-7-7-7-7--7-7-7-7-7--7-7-7-7-7--7-7-7-7-7-|
a|-5-5-5-5-5--5-5-5-5-5--5-5-5-5-5--5-5-5-5-5-|
D|--------------------------------------------|

[Chorus]
e|--------------------------------------------------------------------------|
b|--------------------------------------------------------------------------|
g|-7-7-7-7-7-7-7-7-7-7-7-7-7-7-7-7-12-12-12-12-12-12-12-12-12-12-12-9-9-9-9-|
d|-x-x-x-x-x-x-x-x-x-x-x-x-x-x-x-x--x--x--x--x--x--x--x--x--x--x--x-x-x-x-x-|
a|-5-5-5-5-5-5-5-5-5-5-5-5-5-5-5-5-10-10-10-10-10-10-10-10-10-10-10-7-7-7-7-|
D|--------------------------------------------------------------------------|

e|-------------------------------------------------------------------------|
b|-------------------------------------------------------------------------|
g|-7-7-7-7-7-7-7-7-7-7-7-7-7-7-7-7-12-12-12-12-12-12-12-12-12-12-12-12-12--|
d|-x-x-x-x-x-x-x-x-x-x-x-x-x-x-x-x--x--x--x--x--x--x--x--x--x--x--x--x--x--|
a|-5-5-5-5-5-5-5-5-5-5-5-5-5-5-5-5-10-10-10-10-10-10-10-10-10-10-10-10-10--|
D|-------------------------------------------------------------------------|

e|-------------------------------------|
b|-------------------------------------|
g|-9-9-9-9-9-9-9-9-9-9-9-9-9-9-9-9-12~-|
d|-x-x-x-x-x-x-x-x-x-x-x-x-x-x-x-x--x--|
a|-7-7-7-7-7-7-7-7-7-7-7-7-7-7-7-7-10~-|
D|-------------------------------------|

Interlude: Gtr.1

[Verse]

[Pre-Chorus]

[Chorus]

[Breakdown:] Gtr.1

[Bridge:] Gtr.1

[Chorus]
e|--------------------------------------------------------------------|
b|--------------------------------------------------------------------|
g|--------------------------------------------------------------------|
d|-0-0-0-0-0-0-0-0--5-5-5-5-5-5-5-5--7-7-7-7-7-7-7-7--5-5-5-5-5-5-5-5-|
a|-0-0-0-0-0-0-0-0--5-5-5-5-5-5-5-5--7-7-7-7-7-7-7-7--5-5-5-5-5-5-5-5-|
D|-0-0-0-0-0-0-0-0--5-5-5-5-5-5-5-5--7-7-7-7-7-7-7-7--5-5-5-5-5-5-5-5-|

e|--------------------------------------------------------------------|
b|--------------------------------------------------------------------|
g|--------------------------------------------------------------------|
d|-0-0-0-0-0-0-0-0--5-5-5-5-5-5-5-5--0-0-0-0-0-0-0-0--5-5-5-5-5-5-5-5-|
a|-0-0-0-0-0-0-0-0--5-5-5-5-5-5-5-5--0-0-0-0-0-0-0-0--5-5-5-5-5-5-5-5-|
D|-0-0-0-0-0-0-0-0--5-5-5-5-5-5-5-5--0-0-0-0-0-0-0-0--5-5-5-5-5-5-5-5-|

e|--------------------------------------------------------------------|
b|--------------------------------------------------------------------|
g|--------------------------------------------------------------------|
d|-0-0-0-0-0-0-0-0--5-5-5-5-5-5-5-5--7-7-7-7-7-7-7-7--5-5-5-5-5-5-5-5-|
a|-0-0-0-0-0-0-0-0--5-5-5-5-5-5-5-5--7-7-7-7-7-7-7-7--5-5-5-5-5-5-5-5-|
D|-0-0-0-0-0-0-0-0--5-5-5-5-5-5-5-5--7-7-7-7-7-7-7-7--5-5-5-5-5-5-5-5-|

[Outro:] Gtr.1


************************************

| x  Dead note
| /  Slide up
| .  Staccato
| ~  Vibrato
| *  Natural harmonic

************************************
 
 
Yellowcard - Back Home :: indexed at Ultimate Guitar.
Back Home tabs @ 911Tabs

About the artist behind Back Home:

Yellowcard is an alternative rock multi-platinum selling band from Jacksonville, Florida. Their music features a rare contribution to the genre, incorporating the use of a violin.

The band is not currently active and is on a self-described "indefinite hiatus."

Indexed at Wikipedia.

Show us your talent, perform Back Home!

Here you can post a video or audio performance. Tell me more ...
Where can we find your performance? Tell me more ...
Your comment:
Please, log in to post your performance.