Artists by letter: A B C D E F G H I J K L M N O P Q R S T U V W X Y Z 0-9

 
Already Won
Tabbed By: JimBlenderBR




- Intro: 


    G                C             G           D  
e|---------------------------------------------------------------| 
B|---------------------------------------------------------------|
G|---------------------------------------------------------------| 
D|--5--7--9--12-10-9-10-----10-9-7-9-----9-7-5/4--4-5-7--5--4-5--|   
A|-----------------------7------------5--------------------------|  
E|---------------------------------------------------------------|




- Verse 1:

G                                   C
As the summer extends itself to the winter days
                    G                                 D
The colors begin to fade away and the sun goes down too soon


G                                     C
An old man walks down the road and he stops to look
         G                             Em           D
At his reflection from the window of a car by light of moon





- Chorus:

      C                      D                  G                    Em
He says "I'm just burnin' time, let myself unwind till my life comes undone"
          C                     D                      G
If you're looking for losses to win you've already won





- Post-Chorus: 


    G                C             G           D  
e|---------------------------------------------------------------| 
B|---------------------------------------------------------------|
G|---------------------------------------------------------------| 
D|--5--7--9--12-10-9-10-----10-9-7-9-----9-7-5/4--4-5-7--5--4-5--|   
A|-----------------------7------------5--------------------------|  
E|---------------------------------------------------------------|




- Verse 2:

G                                       C
Pretty, perfect houses all lined up and stripped away
                       G                               D
Of any words that they had to say of anything that is true


G                                                   C
She put a sign out on her lawn that said that she's speakin' up
                                  G                          
But that god damn schedule just won't let up 
                      Em            D
And bills, they don't bend or even move





- Chorus:

       C                      D                  G                    Em
She says "I'm just burnin' time, let myself unwind till my life comes undone"
          C                     D                      G
If you're looking for losses to win you've already won


       C                      D                  G                    Em
She says "I'm just burnin' time, let myself unwind till my life comes undone"
          C                     D                      G
If you're looking for losses to win you've already won


__________
Tabbed by: JimBlenderBR
 
 
Yellowcard - Already Won :: indexed at Ultimate Guitar.
Already Won tabs @ 911Tabs

About the artist behind Already Won:

Yellowcard is an alternative rock multi-platinum selling band from Jacksonville, Florida. Their music features a rare contribution to the genre, incorporating the use of a violin.

The band is not currently active and is on a self-described "indefinite hiatus."

Indexed at Wikipedia.

Show us your talent, perform Already Won!

Here you can post a video or audio performance. Tell me more ...
Where can we find your performance? Tell me more ...
Your comment:
Please, log in to post your performance.