Artists by letter: A B C D E F G H I J K L M N O P Q R S T U V W X Y Z 0-9

 
Por La Sangre Derramada
Es obvio q la letra esta para el culo ya q habla en algun idioma aborigen q desconozco

Intro:
|--10h13-13-----------------------------------------------------
|---------------10-10h13-13-------------------------------------
|-------------------------------9-9h12-12-----10p9--------------
|--------------------------------------------------12p10-8-/12--
|---------------------------------------------------------------
|---------------------------------------------------------------

--10h13-13---------------------------------------------------------|
---------------10-10h13-13------------------------10h13-13-/15-15--|
-------------------------------9-9h12-12-----9h12------------------| x2
-------------------------------------------------------------------|
-------------------------------------------------------------------|
-------------------------------------------------------------------|

   RE     RE DO RE             RE    RE DO RE
|----------------------------|------------------------------------
|----------------------------|------------------------------------
|--/7-----7-5-7--------------|-/7-----7-5-7-----------------------
|--/7-----7-5-7----10h12-/14-|-/7-----7-5-7----12p10--------------
|--/5-5-5-5-3-5-12-----------|-/5-5-5-5-3-5-12-------12p10--------
|----------------------------|-----------------------------13p10--
PM    ...                         ...

  RE     RE DO RE                        RE    RE DO RE
---------------------------------------|-------------------------|
---------------------------------------|-----------------8-------|
--/7-----7-5-7-------------------------|-/7-----7-5-7--7^9v7///--|
--/7-----7-5-7----10h12p10h12p10h12p10-|-/7-----7-5-7------------|
--/5-5-5-5-3-5-12----------------------|-/5-5-5-5-3-5------------|
---------------------------------------|-------------------------|
PM   ...                                    ...

   RE                                 RE
|-----------------------------|    |---------------------------|
|-----------------------------|    |---------------------------|
|--7-----7-----7--------------| x3 |--7-----7-----7-----10///--|
|--7-----7-----7--------------|    |--7-----7-----7-----10///--|
|--5-5-5-5-5-5-5-5-5-8p5-3h5--|    |--5-5-5-5-5-5-5-5-5--8///--|
|-----------------------------|    |---------------------------|
PM   ...   ...   ...               PM   ...   ...   ...

|------------------------------------------------------------|
|------------------------------------------------------------|
|--------------7-7-------------------------------------------|
|--------------7-7--12-10-------------12-12-10---------------|
|--5-3---------5-5--------12-10----10----------12-10---------|
|------5-3-1-3------------------13-------------------13-/15--|

  RE                          RE
|---------------------------|---------------------------
|---------------------------|---------------------------
|-7-----7-----7-------------|-7-----7-----7-------------
|-7-----7-----7-------------|-7-----7-----7-------------
|-5-5-5-5-5-5-5-5-5-8p5-3h5-|-5-5-5-5-5-5-5-5-5-8p5-3h5-
|---------------------------|---------------------------
PM   ...   ...   ...            ...   ...   ...
    Por la sangre que fué     y será derramada,
 FA                  SOL LA#    DO   RE                        RE
-----------------------------------------------------------------------------------------|
-----------------------------------------------------------------------------------------|
-------------------------3------5----7-----7-----7-------------7-----7-----7-------------|
-3-------------------5---3------5----7-----7-----7-------------7-----7-----7-------------|
-3-------------------5---1------3----5-5-5-5-5-5-5-5-5-8p5-3h5-5-5-5-5-5-5-5-5-5-8p5-3h5-|
-1-------------------3-------------------------------------------------------------------|
PM                                     ...   ...   ...           ...   ...   ...
   por los hijos del sol  y por la Pachamama

  RE                          RE
|---------------------------|---------------------------
|---------------------------|---------------------------
|-7-------------------------|-7-------------------------
|-7-------------------------|-7-------------------------
|-5-----------------8p5-3h5-|-5-----------------8p5-3h5-
|---------------------------|---------------------------
    Por la incomprensión      de los incomprendidos,
 RE                           RE
----------------------------|---------------------------
----------------------------|---------------------------
-7------------7-------------|-7------------7------------
-7------------7-------------|-7------------7------------
-5--------5-5-5-----8p5-3h5-|-5--------5-5-5----8p5-3h5-
----------------------------|---------------------------
PM        ...                          ...
   por la justa razón        que zurca en el olvido

 RE                        RE
------------------------------------------------------------|
------------------------------------------------------------|
-7-----7-----7-------------7--------------------------------|
-7-----7-----7-------------7-----------5-7-8-7---7-9-7------|
-5-5-5-5-5-5-5-5-5-8p5-3h5-5-5-5-5-7-8---------8-------8-5--|
------------------------------------------------------------|
PM ...   ...   ...           ...

Por la trecha distante
que separa nativos,
por algún villalud
que no se haya perdido

Por el nexo cortado
de la sabiduria,
machacando a mauna
machistendo deria

Por todas esas causas
sigo firme en mi lucha
y explicar que mi raza
como ayer no se asusta
y explicar que mi raza
como ayer no se asusta

   RE                          RE
|----------------------------|--------------------------|
|----------------------------|--------------------------|
|--7-----7-----7-------------|-7-----7-----7-----10///--|
|--7-----7-----7-------------|-7-----7-----7-----10///--|
|--5-5-5-5-5-5-5-5-5-8p5-3h5-|-5-5-5-5-5-5-5-5-5--8///--|
|----------------------------|--------------------------|
PM   ...   ...   ...           ...   ...   ...

|------------------------------------------------------------|
|------------------------------------------------------------|
|--------------7-7-------------------------------------------|
|--------------7-7--12-10-------------12-12-10---------------|
|--5-3---------5-5--------12-10----10----------12-10---------|
|------5-3-1-3------------------13-------------------13-/15--|

   RE          RE DO LA SOL FA SOL LA SOL FA
|---------------------------------|
|---------------------------------|
|--7-----7-----7-5----------------|
|--7-----7-----7-5-7-5-3-5-7-5-3--|
|--5-5-5-5-5-5-5-3-7-5-3-5-7-5-3--|
|------------------5-3-1-3-5-3-1--|
PM   ...   ...       .

   RE    FA           DO    LA#
|--------------------------------------|
|--------------------------------------|
|--7-----10-----10-10-5-----3-----3-3--| x2
|--7-----10-----10-10-5-----3-----3-3--|
|--5-5-5--8-8-8--8--8-3-3-3-1-1-1-1-1--|
|--------------------------------------|
PM   ...    ...         ...   ...

Solo Base:
   RE    FA           DO    LA#                FA DO LA#      FA RE DO
|--------------------------------------|    |--------------------------------|
|--------------------------------------|    |--------------------------------|
|--7-----10-----10-10-5-----3-----3-3--| x4 |-----5------3-3-----7------5-5--| x2
|--7-----10-----10-10-5-----3-----3-3--|    |--3--5------3-3--3--7------5-5--|
|--5-5-5--8-8-8--8--8-3-3-3-1-1-1-1-1--|    |--3--3--1-1-1-1--3--5--3-3-3-3--|
|--------------------------------------|    |--1--------------1--------------|
PM   ...    ...         ...   ...           PM       ...            ...


Por la mala enseñanza
que ha dejado el gringo
habló todo a medias
pero entero al Cristo

Todo lo que aprendimos
fue a __________
a confiar en sus causas
y a no comprender

Hoy en el siglo XX
padecemos sus vicios
droga, alcohol y sobervia
delincuencia en mis hijos

Cuanta sangre será
en vano derramada
para que amerindia
pueda ser liberada
para que amerindia
pueda ser liberada

   RE      FA      DO      LA#                  LA#    DO  RE      RE
|---------------------------------|    |------------------------------|
|---------------------------------|    |------------------------------|
|--7-----7-10---10-5-----5-3---3--| x4 |--------3--3/--5/--7-------7--|
|--7-----7-10---10-5-----5-3---3--|    |--------3--3/--5/--7-------7--|
|--5-5-5-5--8-8--8-3-3-3-3-1-1-1--|    |--------1--1/--3/--5-------5--|
|---------------------------------|    |------------------------------|
PM   ...    ...      ...   ...


                 V8
Hermética  Horcas  Logos  Rata Blanca

Freyre, Cba.
 
 
Yanaconas - Por La Sangre Derramada :: indexed at Ultimate Guitar.
Por La Sangre Derramada tabs @ 911Tabs
People who played Yanaconas - Por La Sangre Derramada also played these songs by Yanaconas:
Por La Sangre Derramada Tab

Quick tip, so you can enjoy Por La Sangre Derramada even more:

YourChords.com Guitar Chords and Tabs Archive is currently indexing over 240'000 songs from 21'000+ different artists. And new chords just keep on coming in, so you will surely never run out of them.

Show us your talent, perform Por La Sangre Derramada!

Here you can post a video or audio performance. Tell me more ...
Where can we find your performance? Tell me more ...
Your comment:
Please, log in to post your performance.