Artists by letter: A B C D E F G H I J K L M N O P Q R S T U V W X Y Z 0-9

 

Hash Pipe
[Intro\Verse]   

0:00

e|----------------------------------------|
B|----------------------------------------|
G|-2-2-4-5---2-2-4-5---2-2-4-5---2-2-4-5--|
D|-2-2-4-5---2-2-4-5---2-2-4-5---2-2-4-5--|
A|-0-0-2-3---0-0-2-3---0-0-2-3---0-0-2-3--|
E|----------------------------------------| x6  Palm mute it all apart from the
PM___________________________________|          last chord each time you play
                                                the sequence.

[Pre-Chorus]

0:23

e|-------------------------------------------------------------------------|
B|-------------------------------------------------------------------------|
G|-7-7-7-7-7-7-7-7-7-7-7-7-7-7-7-7-----------------------------------------|
D|-7-7-7-7-7-7-7-7-7-7-7-7-7-7-7-7--7-7-9-10--7-7-9-10--7-7-9-10--7-7-9-10-|
A|-5-5-5-5-5-5-5-5-5-5-5-5-5-5-5-5--7-7-9-10--7-7-9-10--7-7-9-10--7-7-9-10-|
E|----------------------------------5-5-7--8--5-5-7--8--5-5-7--8--5-5-7--8-|

e|---------------------------------|
B|---------------------------------|
G|-7-7-7-7-7-7-7-7-7-7-7-7-7-7-7-7-|
D|-7-7-7-7-7-7-7-7-7-7-7-7-7-7-7-7-|
A|-5-5-5-5-5-5-5-5-5-5-5-5-5-5-5-5-|
E|---------------------------------|


[Chorus]

0:35

e|-------------------------------------------------|
B|-------------------------------------------------|
G|---------------------------------7-7-7-7-7-7-7-7-|
D|-3-3-3-3-3-3-3-3-2-2-2-2-2-2-2-2-7-7-7-7-7-7-7-7-|
A|-3-3-3-3-3-3-3-3-2-2-2-2-2-2-2-2-5-5-5-5-5-5-5-5-|
E|-1-1-1-1-1-1-1-1-0-0-0-0-0-0-0-0-----------------|

e|----------------------------------|
B|----------------------------------|
G|-5-5-5-5-5-5-5-5-4-4-44-4--44-4-4-|
D|-5-5-5-5-5-5-5-5-4-4-44-4--44-4-4-|
A|-3-3-3-3-3-3-3-3-2-2-22-2--22-2-2-|
E|----------------------------------| Ive put the rhythm for the last chord
                                      on here.

[Verse]

0:53

e|----------------------------------------|
B|----------------------------------------|
G|-2-2-4-5---2-2-4-5---2-2-4-5---2-2-4-5--|
D|-2-2-4-5---2-2-4-5---2-2-4-5---2-2-4-5--|
A|-0-0-2-3---0-0-2-3---0-0-2-3---0-0-2-3--|
E|----------------------------------------| x6 Same as verse 1
PM___________________________________|


[Pre-Chorus]  

1:17

e|-------------------------------------------------------------------------|
B|-------------------------------------------------------------------------|
G|-7-7-7-7-7-7-7-7-7-7-7-7-7-7-7-7-----------------------------------------|
D|-7-7-7-7-7-7-7-7-7-7-7-7-7-7-7-7--7-7-9-10--7-7-9-10--7-7-9-10--7-7-9-10-|
A|-5-5-5-5-5-5-5-5-5-5-5-5-5-5-5-5--7-7-9-10--7-7-9-10--7-7-9-10--7-7-9-10-|
E|----------------------------------5-5-7--8--5-5-7--8--5-5-7--8--5-5-7--8-|

e|---------------------------------|
B|---------------------------------|
G|-7-7-7-7-7-7-7-7-7-7-7-7-7-7-7-7-|
D|-7-7-7-7-7-7-7-7-7-7-7-7-7-7-7-7-|
A|-5-5-5-5-5-5-5-5-5-5-5-5-5-5-5-5-|
E|---------------------------------|


[Chorus]

1:28

e|-------------------------------------------------|
B|-------------------------------------------------|
G|---------------------------------7-7-7-7-7-7-7-7-|
D|-3-3-3-3-3-3-3-3-2-2-2-2-2-2-2-2-7-7-7-7-7-7-7-7-|
A|-3-3-3-3-3-3-3-3-2-2-2-2-2-2-2-2-5-5-5-5-5-5-5-5-|
E|-1-1-1-1-1-1-1-1-0-0-0-0-0-0-0-0-----------------|

e|----------------------------------|
B|----------------------------------|
G|-5-5-5-5-5-5-5-5-4-4-44-4--44-4-4-|
D|-5-5-5-5-5-5-5-5-4-4-44-4--44-4-4-|
A|-3-3-3-3-3-3-3-3-2-2-22-2--22-2-2-|
E|----------------------------------|


[Interlude]

1:47

e|---------------------------------|
B|---------------------------------|
G|---------------------------------|
D|-0-0-0-0-0-0-0-0-0-0-0-0-0-0-0-0-|
A|-2-2-2-2-2-2-2-2-2-2-2-2-2-2-2-2-|
E|-3-3-3-3-3-3-3-3-3-3-3-3-3-3-3-3-|


[Solo]

(main riff leads into solo)  1:59

e|---------------------------------------------|
B|-13-13-13-13-12-12-12-12-10-10-10-10-8-8-8-8-|
G|--x--x--x--x--x--x--x--x--x--x--x--x-x-x-x-x-|
D|-10-10-10-10--9--9--9--9--7--7--7--7-5-5-5-5-|
A|---------------------------------------------|
E|---------------------------------------------|

e|-12-12-12-12-10-10-10-10-8-8-8-8-7-7-7-7-|
B|--x--x--x--x--x--x--x--x-x-x-x-x-x-x-x-x-|
G|--9--9--9--9--7--7--7--7-5-5-5-5-4-4-4-4-|
D|-----------------------------------------|
A|-----------------------------------------|
E|-----------------------------------------|

e|-15-15-15-15-14-14-14-14-12-12-12-12-10-10-10-10-|
B|--x--x--x--x--x--x--x--x--x--x--x--x--x--x--x--x-|
G|-12-12-12-12-11-11-11-11--9--9--9--9--7--7--7--7-|
D|-------------------------------------------------|
A|-------------------------------------------------|
E|-------------------------------------------------|

e|--------------------------------------------------|
B|-12-12-12-12-10-10-10-10-12-12-12-12-10-10-10-10--|
G|--x--x--x--x--x--x--x--x--x--x--x--x--x--x--x--x--|
D|--9--9--9--9--7--7--7--7--9--9--9--9--7--7--7--7--|
A|--------------------------------------------------|
E|--------------------------------------------------|


[Pre-Chorus]

2:14

e|-------------------------------------------------------------------------|
B|-------------------------------------------------------------------------|
G|-7-7-7-7-7-7-7-7-7-7-7-7-7-7-7-7-----------------------------------------|
D|-7-7-7-7-7-7-7-7-7-7-7-7-7-7-7-7--7-7-9-10--7-7-9-10--7-7-9-10--7-7-9-10-|
A|-5-5-5-5-5-5-5-5-5-5-5-5-5-5-5-5--7-7-9-10--7-7-9-10--7-7-9-10--7-7-9-10-|
E|----------------------------------5-5-7--8--5-5-7--8--5-5-7--8--5-5-7--8-|

e|---------------------------------|
B|---------------------------------|
G|-7-7-7-7-7-7-7-7-7-7-7-7-7-7-7-7-|
D|-7-7-7-7-7-7-7-7-7-7-7-7-7-7-7-7-|
A|-5-5-5-5-5-5-5-5-5-5-5-5-5-5-5-5-|
E|---------------------------------|


[Chorus]

2:26

e|-------------------------------------------------|
B|-------------------------------------------------|
G|---------------------------------7-7-7-7-7-7-7-7-|
D|-3-3-3-3-3-3-3-3-2-2-2-2-2-2-2-2-7-7-7-7-7-7-7-7-|
A|-3-3-3-3-3-3-3-3-2-2-2-2-2-2-2-2-5-5-5-5-5-5-5-5-|
E|-1-1-1-1-1-1-1-1-0-0-0-0-0-0-0-0-----------------|

e|----------------------------------|
B|----------------------------------|
G|-5-5-5-5-5-5-5-5-4-4-44-4--44-4-4-|
D|-5-5-5-5-5-5-5-5-4-4-44-4--44-4-4-|
A|-3-3-3-3-3-3-3-3-2-2-22-2--22-2-2-|
E|----------------------------------|


[Interlude]

2:45

e|---------------------------------|
B|---------------------------------|
G|---------------------------------|
D|-0-0-0-0-0-0-0-0-0-0-0-0-0-0-0-0-|
A|-2-2-2-2-2-2-2-2-2-2-2-2-2-2-2-2-|
E|-3-3-3-3-3-3-3-3-3-3-3-3-3-3-3-3-|


[Outro]

2:49

e|----------------------------------------|
B|----------------------------------------|
G|-2-2-4-5---2-2-4-5---2-2-4-5---2-2-4-5--|
D|-2-2-4-5---2-2-4-5---2-2-4-5---2-2-4-5--|
A|-0-0-2-3---0-0-2-3---0-0-2-3---0-0-2-3--|
E|----------------------------------------| x4 No palm mute on the second two
PM___________________________________|         times you play this.

e|----|
B|----|
G|-2~-|
D|-2~-|
A|-0~-|
E|----| Play and hold this chord after
        the 4th time through the main riff.



************************************

| x   Dead note
| ~   Vibrato
| PM  Palm mute

************************************
 
 
Weezer - Hash Pipe :: indexed at Ultimate Guitar.
Hash Pipe tabs @ 911Tabs

About the artist behind Hash Pipe:

Weezer (IPA: /ˈwizɚ/) is a Grammy nominated American rock band from Los Angeles, California formed in 1992 by Rivers Cuomo (lead vocals, guitar), Patrick Wilson (drums, backing vocals), Matt Sharp (bass, backing vocals), and Jason Cropper (guitar, backing vocals), with the last two replaced by Mikey Welsh and Brian Bell, respectively. Mikey Welsh was later replaced with Scott Shriner.[1] They have released six full-length albums, three EPs, and a DVD; the first album was later re-released as a remastered deluxe edition in 2004. Weezer recently released their sixth album on June 3, 2008. They have sold more than 7 million records to date in the US.[2]

Indexed at Wikipedia.

Show us your talent, perform Hash Pipe!

Here you can post a video or audio performance. Tell me more ...
Where can we find your performance? Tell me more ...
Your comment:
Please, log in to post your performance.