Artists by letter: A B C D E F G H I J K L M N O P Q R S T U V W X Y Z 0-9

 
Dreamin
Dreamin’ - Weezer

Tuning: Standard, half step down

\   slide down
~   sustain
PM  palm mute

Intro/ First Chorus
eb|----------------------------------------------------------|
Bb|----------------------------------------------------------|
Gb|------------------------------8--8------------------------| 
Db|--8--8--5--5-5--6--6--8--8-8--8--8--5--5-5--6--6--8--8-8--|    
Ab|--6--6--5--5-5--6--6--8--8-8--6--6--5--5-5--6--6--8--8-8--|
Eb|--6--6--3--3-3--4--4--6--6-6--6--6--3--3-3--4--4--6--6-6--|

eb|----------------------------------------------------------|
Bb|----------------------------------------------------------|
Gb|------------------------------8--8------------------------| 
Db|--8--8--5--5-5--6--6--8--8-8--8--8--5--5-5--6--6--8--8-8--|    
Ab|--6--6--5--5-5--6--6--8--8-8--6--6--5--5-5--6--6--8--8-8--|
Eb|--6--6--3--3-3--4--4--6--6-6--6--6--3--3-3--4--4--6--6-6--|

eb|----------------------------------------------------------|
Bb|----------------------------------------------------------|
Gb|------------------------------8--8------------------------| 
Db|--8--8--5--5-5--6--6--8--8-8--8--8--5--5-5--6--6--8--8-8--|    
Ab|--6--6--5--5-5--6--6--8--8-8--6--6--5--5-5--6--6--8--8-8--|
Eb|--6--6--3--3-3--4--4--6--6-6--6--6--3--3-3--4--4--6--6-6--|

eb|----------------------------------------------------------|
Bb|----------------------------------------------------------|
Gb|------------------------------8--8------------------------| 
Db|--8--8--5--5-5--6--6--8--8-8--8--8--5--5-5--6--6--8--8-8--|    
Ab|--6--6--5--5-5--6--6--8--8-8--6--6--5--5-5--6--6--8--8-8--|
Eb|--6--6--3--3-3--4--4--6--6-6--6--6--3--3-3--4--4--6--6-6--|

Verse
eb|-------------------------------------------------------------------|
Bb|-------------------------------------------------------------------|
Gb|--8---8-8--8--8-8--------------------------------------------------| 
Db|--8---8-8--8--8-8--5---5-5--5--5-5--6---6-6--6--6-6--8---8-8--8-8--|    
Ab|--6---6-6--6--6-6--5---5-5--5--5-5--6---6-6--6--6-6--6---6-6--6-6--|
Eb|--6---6-6--6--6-6--3---3-3--3--3-3--4---4-4--4--4-4--6---6-6--6-6--|

eb|-------------------------------------------------------------------|
Bb|-------------------------------------------------------------------|
Gb|--8---8-8--8--8-8------------------------------------3---3-3"-3-3--| 
Db|--8---8-8--8--8-8--5---5-5--5--5-5--3---3-3--3--3-3--3---3-3--3-3--|    
Ab|--6---6-6--6--6-6--5---5-5--5--5-5--3---3-3--3--3-3--1---1-1--1-1--|
Eb|--6---6-6--6--6-6--3---3-3--3"-3-3--1---1-1--1"-1-1--1---1-1"-1-1--|

Second Chorus
eb|----------------------------------------------------------|
Bb|----------------------------------------------------------|
Gb|------------------------------8--8------------------------| 
Db|--8--8--5--5-5--6--6--8--8-8--8--8--5--5-5--6--6--8--8-8--|    
Ab|--6--6--5--5-5--6--6--8--8-8--6--6--5--5-5--6--6--8--8-8--|
Eb|--6--6--3--3-3--4--4--6--6-6--6--6--3--3-3--4--4--6--6-6--|

eb|-----------------------------------------------------------|
Bb|-----------------------------------------------------------|
Gb|--8--8-8-7--7-7-8--8-8-------------------------------------| 
Db|--8--8-8-8--8-8-6--6-6-8--8-8--8--8--5--5-5--6--6--8--8-8--|    
Ab|--6--6-6-6--6-6-6--6-6-8--8-8--6--6--5--5-5--6--6--8--8-8--|
Eb|-----------------------6--6-6--6--6--3--3-3--4--4--6--6-6--|

eb|----------------------------------------------------------|
Bb|----------------------------------------------------------|
Gb|------------------------------8--8------------------------| 
Db|--8--8--5--5-5--6--6--8--8-8--8--8--5--5-5--6--6--8--8-8--|    
Ab|--6--6--5--5-5--6--6--8--8-8--6--6--5--5-5--6--6--8--8-8--|
Eb|--6--6--3--3-3--4--4--6--6-6--6--6--3--3-3--4--4--6--6-6--|

eb|----------------------------------------------------------|
Bb|----------------------------------------------------------|
Gb|------------------------------8--8------------------------| 
Db|--8--8--5--5-5--6--6--8--8-8--8--8--5--5-5--6--6--8--8-8--|    
Ab|--6--6--5--5-5--6--6--8--8-8--6--6--5--5-5--6--6--8--8-8--|
Eb|--6--6--3--3-3--4--4--6--6-6--6--6--3--3-3--4--4--6--6-6--|

Verse
eb|-------------------------------------------------------------------|
Bb|-------------------------------------------------------------------|
Gb|--8---8-8--8--8-8------------------------------------8---8-8--8-8--| 
Db|--8---8-8--8--8-8--5---5-5--5--5-5--6---6-6--6--6-6--8---8-8--8-8--|    
Ab|--6---6-6--6--6-6--5---5-5--5--5-5--6---6-6--6--6-6--6---6-6--6-6--|
Eb|--6---6-6--6--6-6--3---3-3--3--3-3--4---4-4--4--4-4--6---6-6--6-6--|

eb|-------------------------------------------------------------------|
Bb|-------------------------------------------------------------------|
Gb|--8---8-8--8--8-8------------------------------------8---8-8--8-8--| 
Db|--8---8-8--8--8-8--5---5-5--5--5-5--6---6-6--6--6-6--8---8-8--8-8--|    
Ab|--6---6-6--6--6-6--5---5-5--5--5-5--6---6-6--6--6-6--6---6-6--6-6--|
Eb|--6---6-6--6--6-6--3---3-3--3--3-3--4---4-4--4--4-4--6---6-6--6-6--|

eb|----------------------------------------------------------------|
Bb|----------------------------------------------------------------|
Gb|--8--8-8--6--6-6--8--8-8--6--6-6--8--8-8--6--6--5--5-5--4--4-4--| 
Db|--8--8-8--6--6-6--8--8-8--6--6-6--8--8-8--6--6--5--5-5--4--4-4--|    
Ab|--6--6-6--4--4-4--6--6-6--4--4-4--6--6-6--4--4--3--3-3--2--2-2--|
Eb|--6--6-6--4--4-4--6--6-6--4--4-4--6--6-6--4--4--3--3-3--2--2-2--|

Bb|----------------------------------------------------------------|
Gb|--8--8-8--6--6-6--8--8-8--6--6-6--8--8-8--6--6--5--5-5--4--4-4--| 
Db|--8--8-8--6--6-6--8--8-8--6--6-6--8--8-8--6--6--5--5-5--4--4-4--|    
Ab|--6--6-6--4--4-4--6--6-6--4--4-4--6--6-6--4--4--3--3-3--2--2-2--|
Eb|--6--6-6--4--4-4--6--6-6--4--4-4--6--6-6--4--4--3--3-3--2--2-2--|

eb|------------------------------------------------------------------------------|
Bb|-------------------------------------8-------------------------------------8--|
Gb|--8--8-8--8-8--8-8--8-8--8-8--8-8--8----8--8-8--8-8--8-8--8-8--8-8--8-8--8----|
Db|--8--8-8--8-8--8-8--8-8--8-8--8-8--8----8--8-8--8-8--8-8--8-8--8-8--8-8--8----|
Ab|--6--6-6--6-6--6-6--6-6--6-6--6-6--6----6--6-6--6-6--6-6--6-6--6-6--6-6--6----|
Eb|------------------------------------------------------------------------------|
PM   ^  ^ ^  ^ ^  ^ ^  ^ ^  ^ ^  ^ ^  ^    ^  ^ ^  ^ ^  ^ ^  ^ ^  ^ ^  ^ ^  ^
eb|------------------------------------------------------------------------------|
Bb|-------------------------------------8-------------------------------------8~-|
Gb|--8--8-8--8-8--8-8--8-8--8-8--8-8--8----8--8-8--8-8--8-8--8-8--8-8--8-8--8----|
Db|--8--8-8--8-8--8-8--8-8--8-8--8-8--8----8--8-8--8-8--8-8--8-8--8-8--8-8--8----|
Ab|--6--6-6--6-6--6-6--6-6--6-6--6-6--6----6--6-6--6-6--6-6--6-6--6-6--6-6--6----|
Eb|------------------------------------------------------------------------------|
PM   ^  ^ ^  ^ ^  ^ ^  ^ ^  ^ ^  ^ ^  ^    ^  ^ ^  ^ ^  ^ ^  ^ ^  ^ ^  ^ ^  ^

(2:23)
Clean
eb|--------------------------------------------------|
Bb|--------------------------------------------------|
Gb|--------------------------------------------------| 
Db|-----8-----8-----8-----8-----8-----8-----8-----8--|    
Ab|--6-----6-----6-----6-----5-----5-----5-----5-----|
Eb|--------------------------------------------------|

eb|--------------------------------------------------|
Bb|--------------------------------------------------|
Gb|--------------------------------------------------| 
Db|-----6-----6-----6-----6-----5-----5-----5-----5--|    
Ab|--3-----3-----3-----3-----1-----1-----1-----1-----|
Eb|--------------------------------------------------|

eb|--------------------------------------------------|
Bb|--------------------------------------------------|
Gb|--------------------------------------------------| 
Db|-----8-----8-----8-----8-----8-----8-----8-----8--|    
Ab|--6-----6-----6-----6-----5-----5-----5-----5-----|
Eb|--------------------------------------------------|

eb|--------------------------------------------------|
Bb|--------------------------------------------------|
Gb|--------------------------------------------------| 
Db|-----6-----6-----6-----6-----5-----5-----5-----5--|    
Ab|--3-----3-----3-----3-----1-----1-----1-----1-----|
Eb|--------------------------------------------------|

eb|--------------------------------------------------|
Bb|--------------------------------------------------|
Gb|--------------------------------------------------| 
Db|-----8-----8-----8-----8-----8-----8-----8-----8--|    
Ab|--6-----6-----6-----6-----5-----5-----5-----5-----|
Eb|--------------------------------------------------|

eb|--------------------------------------------------|
Bb|--------------------------------------------------|
Gb|--------------------------------------------------| 
Db|-----6-----6-----6-----6-----5-----5-----5-----5--|    
Ab|--3-----3-----3-----3-----1-----1-----1-----1-----|
Eb|--------------------------------------------------|

eb|--------------------------------------------------|
Bb|--------------------------------------------------|
Gb|--------------------8-----------------------8-----| 
Db|-----8-----8-----8-----8-----8-----8-----8-----8--|    
Ab|--6-----6-----6-----------5-----5-----5-----------|
Eb|--------------------------------------------------|

** Another guitar in the background plays something like 
eb|----11-----11-----11-----11--|
Bb|-8------8------8------8------|
Gb|-----------------------------| 
Db|-----------------------------|    
Ab|-----------------------------|
Eb|-----------------------------|

eb|--------------------------------------------------|
Bb|--------------------------------------------------|
Gb|--------------------5-----------------------3-----| 
Db|-----6-----6-----6-----6-----5-----5-----5-----5--|    
Ab|--3-----3-----3-----------1-----1-----1-----------|
Eb|--------------------------------------------------|

Distorted
eb|----------------------------------------------------------------------------|
Bb|----------4----4-4---------4----4-4-----------------------------------------|
Gb|----------3----3-3---------3----3-3-----------------------------------------| 
Db|--4--4----1----1-1-4--4----1----1-1--4--4----6----6-6----8--8-8--8-8--8-8\--|    
Ab|--4--4-------------4--4--------------4--4----6----6-6----8"-8-8--8-8--8-8\--|
Eb|--2--2-------------2--2--------------2--2----4----4-4----6--6-6--6-6--6-6\--|

Clean
eb|------------------------------------------------------|
Bb|------------------------------------------------------|
Gb|------------------------------------------------------| 
Db|-----8-----8-----8-----8-----10-----10-----10-----10--|    
Ab|--6-----6-----6-----6-----6------6------6------6------|
Eb|------------------------------------------------------|

Distorted
eb|------------------------------------------------------------------|
Bb|------------------------------------------------------------------|
Gb|------------------------------------------------------------------| 
Db|------12------12------12------12------13------13------13------13--|    
Ab|--10------10------10------10------11------11------11------11------|
Eb|------------------------------------------------------------------|

eb|--------------------------------------------------------------|
Bb|--------------------------------------------------------------|
Gb|-----8-----8-----8-----8-----8-----8-----8-----8-----8-----8--| 
Db|-----8-----8-----8-----8-----8-----8-----8-----8-----8-----8--|    
Ab|--6-----6-----6-----6-----6-----6-----6-----6-----6-----6-----|
Eb|--------------------------------------------------------------|

eb|--------------------------------------------------------------|
Bb|--------------------------------------------------------------|
Gb|-----8-----8-----8-----8-----8-----8-----8-----8-----8-----8--| 
Db|-----8-----8-----8-----8-----8-----8-----8-----8-----8-----8--|    
Ab|--6-----6-----6-----6-----6-----6-----6-----6-----6-----6-----|
Eb|--------------------------------------------------------------|

eb|--------------------------------------|
Bb|--------------------------------------|
Gb|-----8-----8-----8-----8-----8-----8--| 
Db|-----8-----8-----8-----8-----8-----8--|    
Ab|--6-----6-----6-----6-----6-----6-----|
Eb|--------------------------------------|

(3:41)
eb|-------------------------------------------------------------------|
Bb|-------------------------------------------------------------------|
Gb|--8-8-8-8-8-8-8-8-8-8-8-8-8-8-8-8-6-6-6-6-6-6-6-6-6-6-6-6-6-6-6-6--| 
Db|--8-8-8-8-8-8-8-8-8-8-8-8-8-8-8-8-6-6-6-6-6-6-6-6-6-6-6-6-6-6-6-6--|    
Ab|--6-6-6-6-6-6-6-6-5-5-5-5-5-5-5-5-4-4-4-4-4-4-4-4-3-3-3-3-3-3-3-3--|
Eb|-------------------------------------------------------------------|

eb|-------------------------------------------------------------------|
Bb|-------------------------------------------------------------------|
Gb|--8-8-8-8-8-8-8-8-8-8-8-8-8-8-8-8-6-6-6-6-6-6-6-6-6-6-6-6-6-6-6-6--| 
Db|--8-8-8-8-8-8-8-8-8-8-8-8-8-8-8-8-6-6-6-6-6-6-6-6-6-6-6-6-6-6-6-6--|    
Ab|--6-6-6-6-6-6-6-6-5-5-5-5-5-5-5-5-4-4-4-4-4-4-4-4-3-3-3-3-3-3-3-3--|
Eb|-------------------------------------------------------------------|

Final Chorus
eb|--------------------------------------------------|
Bb|--------------------------------------------------|
Gb|--------------------------------------------------| 
Db|--8--8--8--8--5--5--5--5--6--6--6--6--8--8--8--8--|    
Ab|--6--6--6--6--5--5--5--5--6--6--6--6--8--8--8--8--|
Eb|--6--6--6--6--3--3--3--3--4--4--4--4--6--6--6--6--|

eb|--------------------------------------------------|
Bb|--------------------------------------------------|
Gb|--8--8--8--8--------------------------------------| 
Db|--8--8--8--8--5--5--5--5--6--6--6--6--8--8--8--8--|    
Ab|--6--6--6--6--5--5--5--5--6--6--6--6--8--8--8--8--|
Eb|--6--6--6--6--3--3--3--3--4--4--4--4--6--6--6--6--|

eb|--------------------------------------------------|
Bb|--------------------------------------------------|
Gb|--------------------------------------------------| 
Db|--8--8--8--8--5--5--5--5--6--6--6--6--8--8--8--8--|    
Ab|--6--6--6--6--5--5--5--5--6--6--6--6--8--8--8--8--|
Eb|--6--6--6--6--3--3--3--3--4--4--4--4--6--6--6--6--|

eb|---------------------------------------------------|
Bb|---------------------------------------------------|
Gb|--8--8--8--8---------------------------------------| 
Db|--8--8--8--8--5-5-5-5-5-5--6--6--6--6--8--8--8--8--|    
Ab|--6--6--6--6--5-5-5-5-5-5--6--6--6--6--8--8--8--8--|
Eb|--6--6--6--6--3-3-3-3-3-3--4--4--4--4--6--6--6--6--|

eb|--------------------------------------------------|
Bb|--------------------------------------------------|
Gb|--------------------------------------------------| 
Db|--8--8--8--8--5--5--5--5--6--6--6--6--8--8--8--8--|    
Ab|--6--6--6--6--5--5--5--5--6--6--6--6--8--8--8--8--|
Eb|--6--6--6--6--3--3--3--3--4--4--4--4--6--6--6--6--|

eb|--------------------------------------------------|
Bb|--------------------------------------------------|
Gb|--8--8--8--8--------------------------------------| 
Db|--8--8--8--8--5--5--5--5--6--6--6--6--8--8--8--8--|    
Ab|--6--6--6--6--5--5--5--5--6--6--6--6--8--8--8--8--|
Eb|--6--6--6--6--3--3--3--3--4--4--4--4--6--6--6--6--|

eb|--------------------------------------------------|
Bb|--------------------------------------------------|
Gb|--------------------------------------------------| 
Db|--8--8--8--8--5--5--5--5--6--6--6--6--8--8--8--8--|    
Ab|--6--6--6--6--5--5--5--5--6--6--6--6--8--8--8--8--|
Eb|--6--6--6--6--3--3--3--3--4--4--4--4--6--6--6--6--|

eb|--------------------------------------------------|
Bb|--------------------------------------------------|
Gb|--8--8--8--8--------------------------------------| 
Db|--8--8--8--8--5--5--5--5--6--6--6--6--8--8--8--8--|    
Ab|--6--6--6--6--5--5--5--5--6--6--6--6--8--8--8--8--|
Eb|--6--6--6--6--3--3--3--3--4--4--4--4--6--6--6--6--|

(4:44)
eb|----------------------------------------------|
Bb|----------------------------------------------|
Gb|----------------------------------------------| 
Db|--6--6--6--6-6-8--8--8--6--6--6--6-6-8--8--8--|    
Ab|--6--6--6--6-6-8--8--8--6--6--6--6-6-8--8--8--|
Eb|--4--4"-4--4-4-6--6--6--4--4--4--4-4-6"-6--6--|

eb|----------------------------------------------|
Bb|----------------------------------------------|
Gb|----------------------------------------------| 
Db|--6--6--6--6-6-8--8--8--6--6--6--6-6-8--8--8--|    
Ab|--6--6--6--6-6-8--8--8--6--6--6--6-6-8--8--8--|
Eb|--4--4"-4--4-4-6--6--6--4--4--4--4-4-6"-6--6--|

eb|------------------------------------------------------------|
Bb|------------------------------------------------------------|
Gb|------------------------------------------------------------| 
Db|--8----x-5--5-5--5-6--6-3--3-3--8----x-5--5-5--5-6--6-3--3--|    
Ab|--6----x-5--5-5--5-4--4-3--3-3--6----x-5--5-5--5-4--4-3--3--|
Eb|--6----x-3--3-3--3-4--4-1--1-1--6----x-3--3-3--3-4--4-1--1--|

eb|---------------------------------------------------------|
Bb|---------------------------------------------------------|
Gb|-------------------------------------8--8--6-8-----------| 
Db|--8----x-5--5-5--5-6--6-3--3-3--8----8--8--6-8----8--8\--|    
Ab|--6----x-5--5-5--5-4--4-3--3-3--6----6--6--4-6----6--6\--|
Eb|--6----x-3--3-3--3-4--4-1--1-1--6-----------------6--6\--|


 
 
Weezer - Dreamin :: indexed at Ultimate Guitar.
Dreamin tabs @ 911Tabs

About the artist behind Dreamin:

Weezer (IPA: /ˈwizɚ/) is a Grammy nominated American rock band from Los Angeles, California formed in 1992 by Rivers Cuomo (lead vocals, guitar), Patrick Wilson (drums, backing vocals), Matt Sharp (bass, backing vocals), and Jason Cropper (guitar, backing vocals), with the last two replaced by Mikey Welsh and Brian Bell, respectively. Mikey Welsh was later replaced with Scott Shriner.[1] They have released six full-length albums, three EPs, and a DVD; the first album was later re-released as a remastered deluxe edition in 2004. Weezer recently released their sixth album on June 3, 2008. They have sold more than 7 million records to date in the US.[2]

Indexed at Wikipedia.

Show us your talent, perform Dreamin!

Here you can post a video or audio performance. Tell me more ...
Where can we find your performance? Tell me more ...
Your comment:
Please, log in to post your performance.