Artists by letter: A B C D E F G H I J K L M N O P Q R S T U V W X Y Z 0-9

 
Buddy Holly
-------------------------------------------------------------------------------
                             BUDDY HOLLY - WEEZER
-------------------------------------------------------------------------------
Tabbed by: awkacz14
E-mail:

Tuning: Half-step down

intro
e|---------------------------------------------------------------------------|
B|---------------------------------------------------------------------------|
G|---------------------------------------------------------------------------|
D|-4-4-4-4-4-4-4-4-4-4-4-4-4-4/6-6-7-7-7-7-7-7-7-7-7-7-7-7-7-7-7-7-----------|
A|-4-4-4-4-4-4-4-4-4-4-4-4-4-4/6-6-7-7-7-7-7-7-7-7-7-7-7-7-7-7-7-7-----------|
E|-2-2-2-2-2-2-2-2-2-2-2-2-2-2/4-4-5-5-5-5-5-5-5-5-5-5-5-5-5-5-5-5-----------|

Guitar 2
e|---------------------------------------------------------------------------|
B|-14h15p14h15p14------------------------------------------------------------|
G|---------------------------------------------------------------------------|
D|---------------------------------------------------------------------------|
A|---------------------------------------------------------------------------|
E|---------------------------------------------------------------------------|


Pre chorus
e|---------------------------------------------------------------------------|
B|---------------------------------------------------------------------------|
G|-7-7-7-7-7-7-7-7-4-4-4-4---------------------------------------------------|
D|-7-7-7-7-7-7-7-7-4-4-4-4-4-4-4-4-------------------------------------------| X2
A|-5-5-5-5-5-5-5-5-2-2-2-2-4-4-4-4-------------------------------------------|
E|-------------------------2-2-2-2-------------------------------------------|


e|---5-5-5-5--4--2-2-2-----|         |---5-5-5-5-5-5-5-5----------------------|
B|--7-7-7-7-/5-5\-2-2-/----|         |--7-7-7-7-6-6-6-6-----------------------|
G|-------------------------|         |----------------------------------------|
D|-------------------------|X2       |----------------------------------------|
A|-------------------------|         |----------------------------------------|
E|-------------------------|         |----------------------------------------|

chorus
e|---------------------------------------------------------------------------|
B|---------------------------------------------------------------------------|
G|-----------------7-7-7-7-9-9-9-9-------------------------------------------|
D|-7-7-7-7-7-7-7-7-7-7-7-7-9-9-9-9-------------------------------------------| X2
A|-7-7-7-7-7-7-7-7-5-5-5-5-7-7-7-7-------------------------------------------|
E|-5-5-5-5-5-5-5-5-5-5-5-5-7-7-7-7-------------------------------------------|

e|---------------------------------------------------------------------------|
B|---------------------------------------------------------------------------|
G|------------------7-7-9-9--------------------------------------------------|
D|--4-4-4-4-4-4-4-4-7-7-9-9-7-7-7-7------------------------------------------|
A|--4-4-4-4-4-4-4-4-5-5-7-7-7-7-7-7------------------------------------------|
E|--2-2-2-2-2-2-2-2-5-5-7-7-5-5-5-5------------------------------------------|

e|------------------|--------------------------------------------------------|
B|------------------|--------------------------------------------------------|
G|-----7-7-9-9-9-9--|--------------------------------------------------------|
D|-7-7-7-7-9-9-9-9--|---7-7-7-----7-7-7-7-7----------------------------------|
A|-7-7-5-5-7-7-7-7--|---7-7-7-7-7-7-7-7-7-7----------------------------------|
E|-5-5-5-5-7-7-7-7--|---5-5-5-0-0-5-5-5-5-5----------------------------------|

guitar 2:
e|--------4-2---------------4--2---------------------------------------------|
B|--2h3p2-----2-0--2--2h3p2------2p0-----------------------------------------|
G|---------------2-------------------2---------------------------------------|
D|---------------------------------------------------------------------------|
A|---------------------------------------------------------------------------|
E|---------------------------------------------------------------------------|

repeat verse
repeat chorus

Bridge
e|---------------|-----------------|
B|---------------|-----------------|
G|---------------|-----4-6-4-------|
D|-7-7-7---4---4-|-4---4-6-4---4---|X4
A|-7-7-7---4---4-|-4-0-2-4-2-0-4---|
E|-5-5-5-0-2-0-2-|-2-----------2---|

SOLO
Guitar 1 repeat pre-chorus
Guitar 2:
e|------------------------13-13-15-15-16-16-18-18-18-18-x-16-16--------------|
B|---------------------------------------------------------------------------|
G|--11b13-11-9------------11-11-13-13-14-14-16-16-16-16-x-14-14--------------|
D|-------------12-11h12-7----------------------------------------------------|
A|---------------------------------------------------------------------------|
E|---------------------------------------------------------------------------|

eb|--------------------------------------------------------------------------|
Bb|--------------------------------------------14b15-14----------------------|
Gb|--------14-------16b18-16-14-------14----------------14-------------------|
Db|--14h16----16p14-------------14h16----16p14-------------------------------|
Ab|--------------------------------------------------------------------------|
Eb|--------------------------------------------------------------------------|

eb|----------------------|--17--17-19-19h21p19p17-----------|
Bb|-------------------14-|----18------------------18-17-----|
Gb|-------------14h16----|----------------------------------|
Db|-------14h16----------|----------------------------------|
Ab|-14h16----------------|----------------------------------|
Eb|----------------------|----------------------------------|

repeat chorus

ending
e|---------------------------------------------------------------------------|
B|--10-10-10-----------------------------------------------------------------|
G|-----------9-11-9-11-------------------------------------------------------|
D|--7--7--7------------------------------------------------------------------|
A|-----------7--9-7-9--------------------------------------------------------|
E|---------------------------------------------------------------------------|
************************************

| /   slide up
| \   slide down
| h   hammer-on
| p   pull-off
| ~   vibrato
| +   harmonic
| x   Mute note
| b   Bend
| pb  Pre-bend
| br  Bend release
| pbr Pre-bend release
| brb Bend release bend

************************************
 
 
Weezer - Buddy Holly :: indexed at Ultimate Guitar.
Buddy Holly tabs @ 911Tabs

About the artist behind Buddy Holly:

Weezer (IPA: /ˈwizɚ/) is a Grammy nominated American rock band from Los Angeles, California formed in 1992 by Rivers Cuomo (lead vocals, guitar), Patrick Wilson (drums, backing vocals), Matt Sharp (bass, backing vocals), and Jason Cropper (guitar, backing vocals), with the last two replaced by Mikey Welsh and Brian Bell, respectively. Mikey Welsh was later replaced with Scott Shriner.[1] They have released six full-length albums, three EPs, and a DVD; the first album was later re-released as a remastered deluxe edition in 2004. Weezer recently released their sixth album on June 3, 2008. They have sold more than 7 million records to date in the US.[2]

Indexed at Wikipedia.

Show us your talent, perform Buddy Holly!

Here you can post a video or audio performance. Tell me more ...
Where can we find your performance? Tell me more ...
Your comment:
Please, log in to post your performance.