Artists by letter: A B C D E F G H I J K L M N O P Q R S T U V W X Y Z 0-9

 
Buddy Holly
BUDDY HOLLY by:Weezer

Tab by: Aaron Meredith

Tuning 1/2 step down: (Eb-Ab-Db-Gb-Bb-eb)

~ = let ring
/ = slide up
\ = slide down
b = bend
br= bend & return
h = hammer-on
p = pull-off
x = mute string

Verse:  Guitar 1
eb|-----------------------------------------------------------------|
Bb|-----------------------------------------------------------------|
Gb|-----------------------------------------------------------------|x2
Db|-4-4-4-4-4-4-4-4-4-4-4-4-4-4/7-7-7-7-7-7-7-7-7-7-7-7-7-7-7-7-7-7-|
Ab|-4-4-4-4-4-4-4-4-4-4-4-4-4-4/7-7-7-7-7-7-7-7-7-7-7-7-7-7-7-7-7-7-|
Eb|-2-2-2-2-2-2-2-2-2-2-2-2-2-2/4-4-5-5-5-5-5-5-5-5-5-5-5-5-5-5-5-5-|

Verse Fill 1: Guitar 2     Fill 2: Guitar 2
eb|------------------|     |-----16----16------|
Bb|--14h15p14h15p14--|     |--14----14----14~--|
Gb|------------------|     |-------------------|
Db|----(keyboard-----|     |---for-guitar)-----|
Ab|------------------|     |-------------------|
Eb|------------------|     |-------------------|

Pre-chorus: Guitar 1
eb|---------------------------------|
Bb|---------------------------------|
Gb|-7-7-7-7-7-7-7-7-6-6-------------|x2
Db|-7-7-7-7-7-7-7-7-6-6---4-4-4-4-4-|
Ab|-5-5-5-5-5-5-5-5-4-4---4-4-4-4-4-| 
Eb|---------------------0-2-2-2-2-2-|

eb|-----------------------------------|
Bb|------------------6-6-6-6-6-6-6-6--|
Gb|-7-7-7-7-7-7-7-7--7-7-7-7-7-7-7-7--|
Db|-7-7-7-7-7-7-7-7--7-7-7-7-7-7-7-7--|
Ab|-5-5-5-5-5-5-5-5--5-5-5-5-5-5-5-5--| 
Eb|-----------------------------------|

Pre-chorus: Guitar 2 
eb|--5-5-5-5--4--2-2-2-|    |--5-5-5-5-5-5-5-5\-|
Bb|-7-7-7-7-/5-5\-2-2-/|    |-7-7-7-7-6-6-6-6---|
Gb|--------------------|    |-------------------|
Db|--------------------|x2  |-------------------|
Ab|--------------------|    |-------------------|
Eb|--------------------|    |-------------------|

Chorus: Both Guitars
eb|---------------------------------|
Bb|---------------------------------|
Gb|-----------------7-7-7-7-9-9-9-9-|x2
Db|-7-7-7-7-7-7-7-7-7-7-7-7-9-9-9-9-|
Ab|-7-7-7-7-7-7-7-7-5-5-5-5-7-7-7-7-|
Eb|-5-5-5-5-5-5-5-5-5-5-5-5-7-7-7-7-|

eb|---------------------------------|
Bb|---------------------------------|
Gb|-----------------7-7-9-9---------|
Db|-4-4-4-4-4-4-4-4-7-7-9-9-7-7-7-7-|
Ab|-4-4-4-4-4-4-4-4-5-5-7-7-7-7-7-7-|
Eb|-2-2-2-2-2-2-2-2-5-5-7-7-5-5-5-5-|

eb|-----------------|--------------------|
Bb|-----------------|--------------------|
Gb|-----7-7-9-9-9-9-|--------------------|
Db|-7-7-7-7-9-9-9-9-|-7-7-7-----77-7-7-7-|
Ab|-7-7-5-5-7-7-7-7-|-7-7-7--77-77-7-7-7-|
Eb|-5-5-5-5-7-7-7-7-|-5-5-5--00-55-5-5-5-|

Pre-verse: Guitar 1
eb|-----------------------------------------------------------------|
Bb|-----------------------------------------------------------------|
Gb|-----------------------------------------------------------------|
Db|-4-4-4-4-4-4-4-4-4-4-4-4-4-4/6-6-7-7-7-7-7-7-7-7-7-7-7-7-7-7-7-7-|
Ab|-4-4-4-4-4-4-4-4-4-4-4-4-4-4/6-6-7-7-7-7-7-7-7-7-7-7-7-7-7-7-7-7-|
Eb|-2-2-2-2-2-2-2-2-2-2-2-2-2-2/4-4-5-5-5-5-5-5-5-5-5-5-5-5-5-5-5-5-|

Pre-verse: Guitar 2 (keyboard for guitar)
eb|-------2h4-2----------------2h4-2-------|
Bb|-2-3-2-------2-0---2--2h3-2-------2h0---|
Gb|-----------------2--------------------2-|
Db|----------------------------------------|
Ab|----------------------------------------|
Eb|----------------------------------------|



REPEAT VERSE: (w/ Fill 2)

REPEAT PRE-CHORUS:

REPEAT CHORUS: (repeat last part x2)



Bridge:
eb|----------------------------------|
Bb|---------------x-x----------------|
Gb|-2-2-2---------x-x----2-4-6-4-2---|x4
Db|-2-2-2---4---4-x-x--4-2-4-6-4-2---|
Ab|-0-0-0---4---4------4-0-2-4-2-0---|
Eb|-------0-2-0-2------2-----------2-|

Solo: Guitar 1 (REPEAT PRE-CHORUS)

Solo: Guitar 2
eb|------------------------14-14-16-16-17-17-19-19-19-19-x--17--|
Bb|-------------------------x--x--x--x--x--x--x--x--x--x-x---x--|
Gb|-11b-11-9---------------11-11-13-13-14-14-16-16-16-16-x--14--|
Db|----------12-11--12-7~---------------------------------------|
Ab|-------------------------------------------------------------|
Eb|-------------------------------------------------------------|

eb|---------------------------------------------------|
Bb|-----------------------------------------14b-14----|
Gb|-------14-------16b-16-14-------14--------------14-|
Db|-14h16----16p14-----------14h16----16p14-----------|
Ab|---------------------------------------------------|
Eb|---------------------------------------------------|

eb|------------------------17----17-19-19br-17--------------|
Bb|----------------14~~~~-----18----------------18-17~~~\---|
Gb|-----------14h16-----------------------------------------|
Db|------14h16----------------------------------------------|
Ab|-14h16---------------------------------------------------|
Eb|---------------------------------------------------------|

Outro: Guitar 1 (REPEAT CHORUS-last part x4)

Outro: Guitar 2 (during last part of chorus)
eb|-----------------------------------------------------|
Bb|-10-10-10-10-10-10-10-10-10-10-10-10-10-10-10--9-9---|
Gb|--x--x--x--x--x--x--x--x--x--x--x--x--x--x--x--x-x---|x3
Db|--7--7--7--7--7--7--7--7--7--7--7--7--7--7--7--6-6---|
Ab|-----------------------------------------------------|
Eb|-----------------------------------------------------|

End with: Guitar 1
eb|---------------|
Bb|---------------|
Gb|---------------|
Db|-7-7-7---4---4-|
Ab|-7-7-7---4---4-|
Eb|-5-5-5-0-2-0-2-|

End with: Guitar 2
eb|---------------------|
Bb|-10-10-10------------|
Gb|--x--x--x--9-11-9-11-|
Db|--7--7--7--x--x-x--x-|
Ab|-----------7--9-7--9-|
Eb|---------------------|
 
 
Weezer - Buddy Holly :: indexed at Ultimate Guitar.
Buddy Holly tabs @ 911Tabs

About the artist behind Buddy Holly:

Weezer (IPA: /ˈwizɚ/) is a Grammy nominated American rock band from Los Angeles, California formed in 1992 by Rivers Cuomo (lead vocals, guitar), Patrick Wilson (drums, backing vocals), Matt Sharp (bass, backing vocals), and Jason Cropper (guitar, backing vocals), with the last two replaced by Mikey Welsh and Brian Bell, respectively. Mikey Welsh was later replaced with Scott Shriner.[1] They have released six full-length albums, three EPs, and a DVD; the first album was later re-released as a remastered deluxe edition in 2004. Weezer recently released their sixth album on June 3, 2008. They have sold more than 7 million records to date in the US.[2]

Indexed at Wikipedia.

Show us your talent, perform Buddy Holly!

Here you can post a video or audio performance. Tell me more ...
Where can we find your performance? Tell me more ...
Your comment:
Please, log in to post your performance.