Artists by letter: A B C D E F G H I J K L M N O P Q R S T U V W X Y Z 0-9

 
Back To The Shack
Back to the Shack - Weezer

This is a good one. Couldn't find any good tabs online so learned it all by ear :p Hope it helps, enjoy!

LEGEND:
Palm Mute: PM
Vibrato: ~
Slide Up: /
Slide Down: \
Hammer-on: h (1h3)
Pull-off: p (5p4)
Bend: b 
Bend and Hold: bh
Stacatto (short note): .
Tied Note: (9)

INTRO (Repeat 2x)
Eb|-------------------0-------|-----------------------|
Bb|----------0h1p0------0-----|---------0h1p0---------|
Gb|------2----------2------2~~|-----2---------2--2~~~~|
Db|---0--2--------------------|--0--2-----------------|
Ab|---x--0--------------------|--x--0-----------------|
Eb|---3-----------------------|--3--------------------|


VERSE (Repeat 4x)
         "I'm sorry guys I didn't realize that I needed you.."
Eb|--------------------------|
Bb|--------------------------|
Gb|--------------------------|
Db|---5-------7\-------------|
Ab|---5-------7\-------------|
Eb|---3-------5\-------------|

CHORUS (Repeat 4x)
"Take me back, back to the shack back to the strat..."
Eb|---------------------------------------------------------------------------|
Bb|---------------------------------------------------------------------------|
Gb|---------------------------------------------------------------------------|
Db|-------7---7---7---7----5---5---5---5-----7---7---7---7----5---5---5---5---|
Ab|-------7---7---7---7----5---5---5---5-----7---7---7---7----5---5---5---5---|
Eb|-------5---5---5---5----3---3---3---3-----5---5---5---5----3---3---3---3---|

VERSE 2 
  "I've finally settled down with my girl and I made up.."
Eb|---------------------|
Bb|---------------------|
Gb|---------------------|
Db|-----7\--------------|
Ab|-----7\--------------|
Eb|-----5\--------------|

     " I had to go and make a few mistakes so I could find out who I am"
Eb|------------------------------|--------------------------------------------------|
Bb|------------------------------|--------------------------------------------------|
Gb|------------------------------|--------------------------------------------------|
Db|-5--7\------------------------|--------------------------------------------------|
Ab|-5--7\------------------------|-----------------------------------------3h5-3~~~~|
Eb|-3--5\------------------------|-----------------------------------0-3h5----------|

"I'm letting all of these feelings out even if it means.."
Eb|-----------|
Bb|-----------|
Gb|-----------|
Db|---7\------|
Ab|---7\------|
Eb|---5\------|

       "Cause this is what I was meant to do and you can't.."
Eb|------------|
Bb|------------|
Gb|------------|
Db|---5--7\----|
Ab|---5--7\----|
Eb|---3--5\----|

BRIDGE (Repeat 2x)
"We belong in the rock world..."
Eb|--------------------------|------------------------|
Bb|--------------------------|------------------------|
Gb|--------------------------|------6h7p6--4p0--2~-0--|
Db|----7-7\------------------|------------------------|
Ab|----7-7\------------------|------------------------|
Eb|----5-5\------------------|------------------------|

 "If we die, in obscurity....."
Eb|------------------------------------------------------|
Bb|--------------------------5--5--5--5------------------|
Gb|--7--7--7--7--9--9--9--9--6--6--6--6--11--11--11--11--|
Db|--7--7--7--7--9--9--9--9--6--6--6--6--11--11--11--11--|
Ab|--5--5--5--5--7--7--7--7--4--4--4--4---9---9---9---9--|
Eb|------------------------------------------------------|
   PM----------------------------------|

"Oh well..................At least we raised some hell!!!"
Eb|----------------------------------------------------------|
Bb|----------------------------------------------------------|
Gb|--4--4--4--4--4--4--4--4----------------------------------|
Db|--4--4--4--4--4--4--4--4-2-2-2-2-2-2-2-2-2-2-2-2-2-2-2-2--|
Ab|--2--2--2--2--2--2--2--2-2-2-2-2-2-2-2-2-2-2-2-2-2-2-2-2--|
Eb|-------------------------0-0-0-0-0-0-0-0-0-0-0-0-0-0-0-0--|
   PM----------------------(16th notes)---------------|

SOLO
Eb|------------------------------------------------|
Bb|------------------------7----7-----------(7)\---|
Gb|------------------------9b11-9bh11------(11)\---|
Db|------------------------.-----------------------|
Ab|--0-(let ring/feedback)-------------------------|
Eb|------------------------------------------------|

Eb|--------------------------------15------|
Bb|------------------------14--------------|
Gb|-------12------12---12------12----------|
Db|--/11-------11--------------------------|
Ab|----------------------------------------|
Eb|----------------------------------------|


Eb|-15---------------------------------------------------|
Bb|---------17\16-16--16\15--x--15\13-x-13\12--12\10-----|
Gb|-----x----x-----x---x-----x---x----x--x------x--------|
Db|-----x---14\13-13--13\12--x--12\10-x-10\-9---9\-7-----|
Ab|------------------------------------------------------|
Eb|------------------------------------------------------|

Eb|-------------------------------------------------------
Bb|-------------13----------------------------------------
Gb|--12-14-x-14----14-x-14-x-14-x-14-14-14-14-14-12-14-x--
Db|-------------------------------------------------------
Ab|-------------------------------------------------------
Eb|-------------------------------------------------------

Eb|--------------------------------------|
Bb|-----13-------------------------------|
Gb|--14----14-x-14-x-14-x-14-14-14-14-14-|
Db|--------------------------------------|
Ab|--------------------------------------|
Eb|--------------------------------------|

Eb|------------------------17-(17)----------------------|
Bb|--17------------------------------------17-----------|
Gb|-----14-14-14-14-14-14---------14-14-14----14-14-14--|
Db|-----------------------------------------------------|
Ab|-----------------------------------------------------|
Eb|-----------------------------------------------------|

Eb|--------------------------------------------|
Bb|-----17\16--16--16\15--15--15\13--13--13\10-|
Gb|--x---x------x---x------x---x------x--x-----|
Db|--x--14\13--13--13\12--12--12\10--10--10\7--|
Ab|--x-----------------------------------------|
Eb|--------------------------------------------|

Chorus 6 and 3/4x then :

OUTRO
"Back to the shack......."                    (busted!)
Eb|--------------------------------------------|
Bb|--------------------------------------------|
Gb|--------------------------------------------|
Db|----------7--7--7--7---x--5-5-5--5-7-(7)\---|
Ab|----------7--7--7--7---x--5-5-5--5-7-(7)\---|
Eb|----------5--5--5--5---x--3-3-3--3-5-(5)\---|
                             . . .

The chorus riff works for solo backing although I know it
is not exactly what they do for it. I will check back and 
try to figure it out and update this tab as soon as I can.

Rock on!

ORDER:
Intro 2x
Verse 4x
Chorus 4x
Verse 2
Bridge
Chorus 6 and 3/4x
Outro









 
 
Weezer - Back To The Shack :: indexed at Ultimate Guitar.
Back To The Shack tabs @ 911Tabs

About the artist behind Back To The Shack:

Weezer (IPA: /ˈwizɚ/) is a Grammy nominated American rock band from Los Angeles, California formed in 1992 by Rivers Cuomo (lead vocals, guitar), Patrick Wilson (drums, backing vocals), Matt Sharp (bass, backing vocals), and Jason Cropper (guitar, backing vocals), with the last two replaced by Mikey Welsh and Brian Bell, respectively. Mikey Welsh was later replaced with Scott Shriner.[1] They have released six full-length albums, three EPs, and a DVD; the first album was later re-released as a remastered deluxe edition in 2004. Weezer recently released their sixth album on June 3, 2008. They have sold more than 7 million records to date in the US.[2]

Indexed at Wikipedia.

Show us your talent, perform Back To The Shack!

Here you can post a video or audio performance. Tell me more ...
Where can we find your performance? Tell me more ...
Your comment:
Please, log in to post your performance.