Artists by letter: A B C D E F G H I J K L M N O P Q R S T U V W X Y Z 0-9

 
My Head Hurts
Some of the power chords can be played as full chords, it just sounded more like the recording as power chords
so I put them down as an option. 


[Intro]

e|--------------------------------------------------------------------|
B|--8-8-8-8--------------------------8-8-8-8--------------------------|
G|----------9-9-9-9-7-7-7-7------------------9-9-9-9-7-7-7-7----------|
D|--------------------------9-9-9-9--------------------------9-9-9-9--|
A|--------------------------------------------------------------------|
E|--------------------------------------------------------------------|

e|-8-8-8-8--7-7-7-7------------------8-8-8-8-7-7-7-7-10-10-10-10-8-8-8-8---|
B|------------------8-8-8-8-7-7-7-7----------------------------------------|
G|-------------------------------------------------------------------------|    
D|-------------------------------------------------------------------------|     
A|-------------------------------------------------------------------------|
E|-------------------------------------------------------------------------|


[Verse]

e|--------------------------------------------------------------|
B|--------------------------------------------------------------|
G|--4-4-4------4-4-4--------------------------------------------|  x2
D|--5-5-5------5-5-5-------------------------5-5-5-5-5-5-5-5----|      
A|--5-5-5------5-5-5---------9-9-9-9-9-9-9-9-3-3-3-3-3-3-3-3----|
E|--3-3-3------3-3-3---------7-7-7-7-7-7-7-7--------------------|


[Chorus]

e|---3-3-3-3--7-7-7-7--7-7-7-7------------|
B|---3-3-3-3--7-7-7-7--9-9-9-9--5-5-5-5---|
G|---4-4-4-4--8-8-8-8--9-9-9-9--5-5-5-5---|  x2
D|---5-5-5-5--9-9-9-9--9-9-9-9--5-5-5-5---|   
A|---5-5-5-5--9-9-9-9--7-7-7-7--3-3-3-3---|
E|---3-3-3-3--7-7-7-7---------------------|


[Verse]

e|--------------------------------------------------------------|
B|--------------------------------------------------------------|
G|--4-4-4------4-4-4--------------------------------------------|  x2
D|--5-5-5------5-5-5-------------------------5-5-5-5-5-5-5-5----|    
A|--5-5-5------5-5-5---------9-9-9-9-9-9-9-9-3-3-3-3-3-3-3-3----|
E|--3-3-3------3-3-3---------7-7-7-7-7-7-7-7--------------------|


[Chorus]

e|---3-3-3-3--7-7-7-7--7-7-7-7------------|
B|---3-3-3-3--7-7-7-7--9-9-9-9--5-5-5-5---|
G|---4-4-4-4--8-8-8-8--9-9-9-9--5-5-5-5---| x2
D|---5-5-5-5--9-9-9-9--9-9-9-9--5-5-5-5---|  
A|---5-5-5-5--9-9-9-9--7-7-7-7--3-3-3-3---|
E|---3-3-3-3--7-7-7-7---------------------|


[Bridge]

e|-------------------------------------------------------------------------------|
B|-------------------------------------------------------------------------------|
G|-------------------------------------------------------------------------------| 
D|--2-2-2-2-2-2--2-2-2-2-2-2--2-2-2-2-2-2--2-2-2-2-2-2--2-2-2-2-2-2--2-2-2-2-2-2-|
A|--2-2-2-2-2-2--2-2-2-2-2-2--2-2-2-2-2-2--2-2-2-2-2-2--2-2-2-2-2-2--2-2-2-2-2-2-|
E|--0-0-0-0-0-0--0-0-0-0-0-0--0-0-0-0-0-0--0-0-0-0-0-0--0-0-0-0-0-0--0-0-0-0-0-0-|
                                                                                    x4             
e|------------------------------------------------------|
B|------------------------------------------------------|
G|-5-5-5-5-5-5--5-5-5-5-5-5-----------------------------|     
D|-5-5-5-5-5-5--5-5-5-5-5-5--5-5-5-5-5-5--5-5-5-5-5-5---|     
A|-3-3-3-3-3-3--3-3-3-3-3-3--5-5-5-5-5-5--5-5-5-5-5-5---|
E|---------------------------3-3-3-3-3-3--3-3-3-3-3-3---|


[Chorus]

e|---3-3-3-3--7-7-7-7--7-7-7-7------------|
B|---3-3-3-3--7-7-7-7--9-9-9-9--5-5-5-5---|
G|---4-4-4-4--8-8-8-8--9-9-9-9--5-5-5-5---|  
D|---5-5-5-5--9-9-9-9--9-9-9-9--5-5-5-5---|  x4
A|---5-5-5-5--9-9-9-9--7-7-7-7--3-3-3-3---|
E|---3-3-3-3--7-7-7-7---------------------|


[Outro]

e|----------------------------------------|
B|----------------------------------------|
G|----------------------------------------|  
D|---------------------9-9-9-9--5-5-5-5---|  x4  
A|---5-5-5-5--9-9-9-9--7-7-7-7--3-3-3-3---|
E|---3-3-3-3--7-7-7-7---------------------|
 
 
Wavves - My Head Hurts :: indexed at Ultimate Guitar.
My Head Hurts tabs @ 911Tabs
People who played Wavves - My Head Hurts also played these songs by Wavves:
So Bored Tab, No Hope Kids Tab, Weed Demon Tab, Post Acid Tab, Green Eyes Chords, To The Dregs Tab

Quick tip, so you can enjoy My Head Hurts even more:

If you don't really know how to deal with "Absus4" chord and his equally confusing brothers, just put the mouse cursor over them and you will be shown a helpful chord diagram.

Show us your talent, perform My Head Hurts!

Here you can post a video or audio performance. Tell me more ...
Where can we find your performance? Tell me more ...
Your comment:
Please, log in to post your performance.