Artists by letter: A B C D E F G H I J K L M N O P Q R S T U V W X Y Z 0-9

 
Fairytale Of New York
Intro

CAPO 3nd!!!!!!
e|-------------------------------------------------------------------------- |
B|---0---2-3---------------------------------------------------------------  |
G|-2---0-----2---0---------------------------------------------------------- |
D|-------------0---4-2-0-0---------------------------------------------------|
A|---------------------------------------------------------------------------|
E|---------------------------------------------------------------------------|

e|---------------------------------------------------------------------------|
B|---------------------------------------------------------------------------|
G|---------------------------------------------------------------------------|
D|---0---2-0-0-----12-12-11-11-9-9-----9-11-12-7-4-4-----0-5-4-4-2-2---------|
A|-0---4---------------------------------------------------------------------|
E|---------------------------------------------------------------------------|



C                F
It was Christmas Eve babe, In the drunktank
           C                     G
An old man said to me, won't see another one
            C                         F
And then he sang a song, The Rare Old Mountain Dew
            C                     G     C
I turned my face away And dreamed about you

C                     F
Got on a lucky one Came in eighteen to one
           C                       G
I've got a feeling This year's for me and you
         C                    F
So happy Christmas, I love you baby
            C                         G          C
I can see a better time When all our dreams come true

C
They've got cars
       G
Big as bars
            Am        F
They've got rivers of gold
        C
But the wind goes right through you
                      G
It's no place for the old
         C             Am
When you first took my hand
     C              F
On a cold Christmas Eve
    C
You promised me
             G           C
Broadway was waiting for me
         C
You were handsome

You were pretty
                  G
Queen of New York City
         C             F
When the band finished playing
     G              C
They howled out for more
C
Sinatra was swinging
                         G
All the drunks they were singing
   C             F
We kissed on the corner
     G                  C
Then danced through the night
    F                G
The boys of the NYPD choir
     C               Am
Were singing 'Galway Bay'
        C          F
And the bells were ringing
G                 C
Out for Christmas day

[Short Instrumental]
C F
C G
C F
C G C

C
You're a bum
         G
You're a punk
          Am           F
You're an old slut on junk
       C
Living there almost dead
                  G
on a drip In that bed
    C
You scum bag

You maggot
                G
You cheap lousy faggot
      C              F
Happy Christmas your arse
       G
I pray God
         C
It's our last

F             G
The boys of the NYPD choir
       C              Am
Still singing `Galway Bay`
        C         F
And the bells are ringing
G                 C
Out for Christmas Day

C                           F
I could have been someone Well, So could anyone
            C                           G
You took my dreams From me when I first found you
            C                       F
I kept them with me babe I put them with my own
              C                              G      C
Can't make it all alone I've built my dreams around you

F             G
The boys of the NYPD choir
      C               Am
Still Singing `Galway Bay`
        C         F
And the bells are ringing
G                 C
Out for Christmas Day
 
 
Walk Off The Earth - Fairytale Of New York :: indexed at Ultimate Guitar.
Fairytale Of New York tabs @ 911Tabs
People who played Walk Off The Earth - Fairytale Of New York also played these songs by Walk Off The Earth:
Summer Vibe Chords, Gang Of Rhythm Chords, Somebody That I Used To Know Tab, Speeches Chords, Magic Chords, Sunburnt Hand Chords

Quick tip, so you can enjoy Fairytale Of New York even more:

Try out the AutoScroller option ... It scrolls the page for you, so you can totally focus on nailing that solo. You can choose among different speeds using your mouse or your keyboard (keys 0, 1, 2 and 3).

Show us your talent, perform Fairytale Of New York!

Here you can post a video or audio performance. Tell me more ...
Where can we find your performance? Tell me more ...
Your comment:
Please, log in to post your performance.