Artists by letter: A B C D E F G H I J K L M N O P Q R S T U V W X Y Z 0-9

 
Charm Me
Charm me
by: Wake up your seatmate

this is their first single on their debut album. first time i heard them live on RT's Sunday Sessions.
Grabe astiiiggggg kayo guyz!!!! ang bagsik ng drummer.

hello sa wake up your seatmate...kay mia, celine, paty and atchoo...
keep up the goodwork.ang gagaling nyong lahat...i really like your songs..goodluck....

Chords:

DM9	E  	Bm	A	D	F	G	E2	Bm2	D2	
e--------0------0-------2-------0-------2-------1-------3-------7--------7-------5----|
B--------2------0-------3-------2-------3-------1-------3-------9--------7-------7----|
G--------2------1-------4-------2-------2-------2-------4-------9--------7-------7----|
D--------0------2-------4-------2-------0-------3-------5-------9--------9-------7----|
A--------x------2-------2-------0-------x-------3-------5-------7--------9-------5----|
E--------x------0-------x-------x-------x-------1-------3-------7--------7-------5----|

Intro:
 
    DM9			DM9		     DM9
e----0------4-4-5-4---|--0----------------|---0----4-4-5-4-|-12-10-9---------12----12--|
B----2--------------5-|--2-----2-2-3-5-5--|---2------------|----------12--12----12-----|
G----2----------------|--2----------------|---2------------|---------------------------|
D----0----------------|--0----------------|---0------------|---------------------------|
A----x----------------|--x----------------|---x------------|---------------------------|
E----x----------------|--x----------------|---x------------|---------------------------|

Verse:

DM9 
 
 
Wake Up Your Seatmate - Charm Me :: indexed at Ultimate Guitar.
Charm Me tabs @ 911Tabs
People who played Wake Up Your Seatmate - Charm Me also played these songs by Wake Up Your Seatmate:
Panaginip Tab, Panaginip Tab, Charm Me Tab, Panaginip Chords, Hanging Out With You Chords, Tiger Lili Chords

Quick tip, so you can enjoy Charm Me even more:

After the registration (which takes just 10 seconds, remember?) you will be able to use your profile - your very own piece of YourChords.com.

Show us your talent, perform Charm Me!

Here you can post a video or audio performance. Tell me more ...
Where can we find your performance? Tell me more ...
Your comment:
Please, log in to post your performance.