Artists by letter: A B C D E F G H I J K L M N O P Q R S T U V W X Y Z 0-9

 
Madness Of Others
-------------------------------------------------------------------------------
                             Madness Of Others - Wake Owl
-------------------------------------------------------------------------------
Tabbed by:Chandler Boyd
Email: [email protected]
Tuning:Standard

Verse:
e|------------------------------------------------------------------------------------| \
B|------------------------------------------------------------------------------------|  \
G|------------------------------------------------------------------------------------|   \
D|---3----3----3----3----3----3----3----3----8----8----8----8----8----8----8----8----8|    \
A|--4----4----4----4----4----4----4----4----9----9----9----9----9----9----9----9----9-|     \
E|-4----4----4----4----4----4----4----4----9----9----9----9----9----9----9----9----9--|      \ 
                                                                                              \
e|------------------------------------------------------------------------------------|        \
B|------------------------------------------------------------------------------------|         \
G|------------------------------------------------------------------------------------|          x4
D|---3----3----3----3----3----3----3----3----8----8----8----8----8----8----8----8----8|
A|--4----4----4----4----4----4----4----4----9----9----9----9----9----9----9----9----9-|         /
E|-4----4----4----4----4----4----4----4----9----9----9----9----9----9----9----9----9--|        /
                                                                                              /
e|---------------------------------------------------------------------------------------|   /
B|---------------------------------------------------------------------------------------|  /
G|---------------------------------------------------------------------------------------| /
D|---6----6----6----6----6----6----6----6----10----10----10----10----10----10----10----10|/
A|--8----8----8----8----8----8----8----8----11----11----11----11----11----11----11----11-|
E|-8----8----8----8----8----8----8----8----11----11----11----11----11----11----11----11--|

Chorus:
e|---------------------------------------------------------------------------------|
B|---7----7-----7----7-----9----9----9----9---11---11---11---11----9----9----9----9|
G|--8----8-----8----8----10---10---10---10---11---11---11---11---10---10---10---10-|
D|---------------------------------------------------------------------------------|
A|-6----6-----6----6----8----8----8----8----9----9----9----9----8----8----8----8---|
E|---------------------------------------------------------------------------------|

e|--------------------------------------------------------------------------------|
B|---7----7----7----7-----9----9----9----9---11---11---11---11---11---11---11---11|
G|--8----8----8----8----10---10---10---10---11---11---11---11---11---11---11---11-|
D|--------------------------------------------------------------------------------|
A|-6----6----6----6----8----8----8----8----9----9----9----9----9----9----9----9---|
E|--------------------------------------------------------------------------------|

Bridge:
e|--------------------------------------------------------------------------------|\
B|---6----6----6----6----7----7----7----7----10---10---10---10---11---11---11---11| \
G|--7----7----7----7----8----8----8----8----11---11---11---11---11---11---11---11-|  \
D|--------------------------------------------------------------------------------|   \
A|-5----5----5----5----6----6----6----6----9----9----9----9----9----9----9----9---|    \
E|--------------------------------------------------------------------------------|     
                                                                                        x2
e|-------------------------------------------------------------------------------|     /
B|---6----6----6----6----6----6----6----6----2----2----2----2----2----2----2----2|    /
G|--7----7----7----7----7----7----7----7----3----3----3----3----3----3----3----3-|   /
D|-------------------------------------------------------------------------------|  /
A|-5----5----5----5----5----5----5----5----1----1----1----1----1----1----1----1--| /
E|-------------------------------------------------------------------------------|/

The last bridge is done 4x
Enjoy.

************************************

| /   slide up
| \   slide down
| h   hammer-on
| p   pull-off
| ~   vibrato
| +   harmonic
| x   Mute note
| b   Bend
| pb  Pre-bend
| br  Bend release
| pbr Pre-bend release
| brb Bend release bend

************************************
 
 
Wake Owl - Madness Of Others :: indexed at Ultimate Guitar.
Madness Of Others tabs @ 911Tabs
People who played Wake Owl - Madness Of Others also played these songs by Wake Owl:
Gold Tab, Wild Country Chords, Gold Chords, Wild Country Chords, Grow Chords, Gold Chords

Quick tip, so you can enjoy Madness Of Others even more:

You might want to transpose the song if it is too high or too low for you to sing. Just click the desired option while playing a song and all the chords will automatically be transponded into a new key.

Show us your talent, perform Madness Of Others!

Here you can post a video or audio performance. Tell me more ...
Where can we find your performance? Tell me more ...
Your comment:
Please, log in to post your performance.