Artists by letter: A B C D E F G H I J K L M N O P Q R S T U V W X Y Z 0-9

 
Wild Child
( this is only for lead)

intro

----------0-----0---------------0----0-------|
-7---7-------------7----7-7------------------|
---6---6-----6--------6------6----6-----6----|
---------------------------------------------|
---------------------------------------------|
---------------------------------------------| repeat 10x

During intro enter at 3rd refrain

---------------------------------------------------------------|
------3-----------------------------------------3--------------|
------2----4------------------------------------2--4-----------|
-4----0----4----4--4-4-4-4-4-4-4-4-4-4-4-4---4--0--4--4--------|
-4---------2----4--4-4-4-4-4-4-4-4-4-4-4-4---4-----2--4--------|
-2--------------2--2-2-2-2-2-2-2-2-2-2-2-2---2--------2--------|
                  pm-----------------------------|

------------|
------------|
------------|
--0---------|
--2--0------|
-----2------|

i ride   i ride the winds that bring the rain a creature of love
tell me  tell me the lies   your   telling him when you runaway
-----------------------------------------------------------------|
----------------------3------------------------------------------|
----------------------2--------------------------------------4---|
----4-----------------0--------------------------------------4---|
----4--------------------------------------------------------2---|
----2------------------------------------------------------------|

and i cant be tamed           i want you cuz im gonna take your love from him
cuz i wanna know                   cause i im sure its killing him to find
----------------------------------------------------------------|
-----------------------------------------------------3----------|
----------------------7-9----------------------------2----------|
-----------------4----7-9----4-----------------------0----------|
-----------------4----5-7----4----------------------------------|
-----------------2-----------2----------------------------------|

and ill touch your face  and hot burning skin
that you run to me    when he lets you go

-----------------------------------------------------------|
-----------------------------------------------------------|
----------4------------------------------------------------|
----------4------------------------4-----------------------|
----------2------------------------4-----------------------|
-----------------------------------2-----------------------|

no he'll never ever touch you like i do
 cuz im burn burning burning up with fire

-------------------------------------------------|
-------------------------------------------------|
-7--9--7--------------------9--------------------|
-7--9--7--------------------9-----------4--------|
-5--7--5--------------------7-----------4--------|
----------------------------------------2--------|

so look in my eyes and burn alive      the truth
so come turn me on and turn the flames up higher

---------------------------------------------------------------|
---------------------------------------------------------------|
-------------7------------7------------9-6---------------------|
-------------7------------7------------9-6--6-6-6-6-6----------|
-------------5------------9------------7-4--4-4-4-4-4----------|
---------------------------------------------------------------|

im a wild child come and love me i want  you

-------------|-------------------------------------------------------|
-------------|-------------------------------------------------------|
-------------|------------------------------------------7-------9----|
--2-0--------|--------------------------4---------------7-------9----|
-------4-2-0-|-----4-----------------0--4-----------0---5-------7----|
-------------|-4-0-2---2--2--2--0--2----2-2-2-2-0-2------------------|

hearts an exile i need you to touch me cuz i   want what you do

-------------------------------------------------------------------|
-------------------------------------------------------------------|
---------------------------------------------------7----------9----|
-----------4--------------------4------------------7----------9----|
-----------4------------------0-4----------------0-5----------7----|
-----------2----2--2--2--0--2---2--2--2--2--0--2-------------------|
 play one more time

Fill

---------------------------------|
---------------------------------|
----4fb-2---4-2-4-4hb-4p2--------|
--x-------4---------------4-4----|
---------------------------------|
---------------------------------|

a naked heat machine i want your love when the moons arise we'll feel just what it does

----------------------------------------------------------------------------|
------------------------------------------------2---------------------------|
-2----------------------------------------------2---------------------------|
-2----------------------4-----------------------2-------------------------4-|
-0----------------------4-------------------------------------------------4-|
------------------------2-------------------------------------------------2-|

solo

----------------|------------------|----------------|
-------------5--|--3p2-3p2p0-------|----------------|
--4fb--4rb--2----|------------2p1-2-|~~~~~~~~~~~~---|
----------------|------------------|----------------|
----------------|------------------|----------------|
----------------|------------------|----------------|

/   3   \    /   3   \
---2----2----|------|--|--|--2-4-|---5h7p5h7p5h7---5p4h5p4-----|
-------------|--3-5-|--|--|5-----------------------------------|
-4---4----4--|4-----|--|---------------------------------------|
----------------------|----------------------------------------|
----------------------|----------------------------------------|
----------------------|----------------------------------------|

all triplets

-7p5p4h5p4p2------------2--------------------------------|
---------------5p4h5p3---5p4h5p4--2----------------------|
-----------------------------------4p2h4p2---------------|
---------------------------------------------------------|
---------------------------------------------------------|
---------------------------------------------------------|

/ 3 \ / 3 \
------------------|----------2--4--5-|-5fb-5rb-p4--5~~~~~~------|
--2---------------|--------2---------|--------------------------|
---4p2h4p3p2------|---1--2-----------|--------------------------|
--------------4/--|--4---------------|--------------------------|
------------------|------------------|--------------------------|
------------------|------------------|--------------------------|
                     pm

------------------14--16--17-|-17fb--17rb--p14--17~~~~~-0--19----|
--------------14-------------|-----------------------------------|
------13--14-----------------|-----------------------------------|
--16-------------------------|-----------------------------------|
-----------------------------|-----------------------------------|
-----------------------------|-----------------------------------|

-19fb--19fb---0--22fb-|--22fb--22fb--0--19fb ----|
---------------------|---------------------------|
---------------------|---------------------------|
---------------------|---------------------------|
---------------------|---------------------------|
---------------------|---------------------------|

-17-----19--17----------|------|------|---2--|----|-----------|
----19----------19~~~~~-|------|------|---2--|----|-----------|
------------------------|---7--|---9--|---2--|--7-|---9-------|
------------------------|---7--|---9--|---4--|--7-|---7----4--|
------------------------|---5--|---7--|---4--|--5-|---7-------|
------------------------|------|------|---2--|----|-----------|

----------|---------------------|-----------------|----------------|
----------|---------------------|-----------------|----------------|
-~~~~1--2-|---4--2--1--2--1-----|-----------------|----------------|
----------|------------------2--|---0---2 fb-2rb~~~|~~~~~~~~~~-4---|
----------|---------------------|-----------------|----------------|
----------|---------------------|-----------------|----------------|

-------------|---------------------|------------------|
-------------|-----------2-----2---|--3--5fb--~~~~~---|
~~~~---1--2--|--4--2--4-----4------|------------------|
-------------|---------------------|------------------|
-------------|---------------------|------------------|
-------------|---------------------|------------------|

two guitars

--------2---|--(2)-------4---5-----|
------------|----------------------|
~~~~~---4---|--(4)-------1---2-----|
------------|----------------------|
------------|----------------------|
------------|----------------------|

--7--5--4--5--4-----|---------------|-------2--|--(2)--4--5------|
-----------------5--|--3---5fb--5rb--|-~~~~~----|----------------|
--4--2--1--2--1-----|---------------|----------|------1--2-------|
-----------------2--|--0---2fb--2rb--|-~~~~~-4--|--(4)------- ---|
--------------------|---------------|----------|-----------------|
--------------------|---------------|----------|-----------------|

--7--5--7--9--7--9--|--10-----12fb--12rb-----|
-----------2-----2--|------------------------|
--4--2--4-----4-----|------------------------|
--------------------|---8------2fb--2rb  ----|
--------------------|------------------------|
--------------------|------------------------|

repeat chorus

key

fb__________ full bend
rb__________return bend
p___________pull off
h___________hammer on
pm_________palm mute
/ 3 \________triplets
 
 
W.A.S.P. - Wild Child :: indexed at Ultimate Guitar.
Wild Child tabs @ 911Tabs

Quick tip, so you can enjoy Wild Child even more:

Try out the AutoScroller option ... It scrolls the page for you, so you can totally focus on nailing that solo. You can choose among different speeds using your mouse or your keyboard (keys 0, 1, 2 and 3).

Show us your talent, perform Wild Child!

Here you can post a video or audio performance. Tell me more ...
Where can we find your performance? Tell me more ...
Your comment:
Please, log in to post your performance.