Artists by letter: A B C D E F G H I J K L M N O P Q R S T U V W X Y Z 0-9

 
The Neutron Bomber
Band: W.A.S.P.
Song: The Neutron Bomber
Album: The Headless Children (1989)
Tuning: Eb

Intro
|-------------------------------------------|-------------------------------------------|
|-------------------------------------------|-------------------------------------------|
|-------------------------------------------|-------------------------------------------|
|-------------------------5--4--2--4--2--7--|-------------------------5--4--2--4--5--7--|
|-2-2-2-2-----2-2-2-2-----3--2--0--2--0--5--|-2-2-2-2-----2-2-2-2-----3--2--0--2--3--5--|
|-0-0-0-0-----0-0-0-0-----------------------|-0-0-0-0-----0-0-0-0-----------------------|

Bridge/Chorus 
|-------------------------------------|
|-------------------------------------|
|-------------------------------------|
|-------------2-----5--4--2--4--2--7--|
|-2-----5-----0-----3--2--0--2--0--5--|
|-0-----3-----------------------------|

Verse
|---------------------------------|
|---------------------------------|
|---------------------------------|
|---------------------------------|
|-7-7-7-7-7-7-7-7-7-7-7-7-7-7-7-7-|
|---------------------------------|

|---------------------------------|
|---------------------------------|
|---------------------------------|
|---------------------------------|
|-5-5-5-5-5-5-5-5-3-3-3-3-5-5-5-5-|
|---------------------------------|

Fill After Chorus
|--------------------------------|
|--------------------------------|
|--------------------------------|
|-7-5-4-5-4---4------------------|
|-----------7---7-5-7-5-4-2------|
|-------------------------0------|

|--------------------------|------------------------|
|--------------------------|------------------------|
|----12-14h15p14p12-14ah---|------------------------|
|-14-----------------------|-7-5-4-7-5-4-7-5-4------|
|--------------------------|-------------------7----|
|--------------------------|------------------------|

Verse Leads
|------|
|-17---|
|-19b--|
|------|
|------|
|------|

|-----------------|
|-----------------|
|-----------------|
|-5---5-7-5-7/9---|
|---7-------------|
|-----------------|

|------|
|-15---|
|-17b--|
|------|
|------|
|------|

|------|
|------|
|------|
|-0----| Divebomb
|------|
|------|


Solo Backing
|---------------------------------|
|---------------------------------|
|---------------------------------|
|---------------------------------|
|---------------------------------| x4
|-2-2-2-2-2-2-2-2-2-2-2-2-2-2-2-2-|

|---------------------------------|--------------------------------|
|---------------------------------|--------------------------------|
|---------------------------------|--------------------------------|
|---------------------------------|---------------------------2----|
|---------------------------5-2-5-|---------------------------0----|
|-2-2-2-2-2-2-2-2-2-2-2-2-2-3-0-3-|-2-2-2-2-2-2-2-2-2-2-2-2-2------|

|---------------------------------|--------------------------------|
|---------------------------------|--------------------------------|
|---------------------------------|--------------------------------|
|---------------------------------|--------------------------------|
|---------------------------5-2-5-|-4------------------------------|
|-2-2-2-2-2-2-2-2-2-2-2-2-2-3-0-3-|-2------------------------------|

|-----------------------------------------------------|
|-----------------------------------------------------|
|-----------------------------------------------------|
|-----------------------------11-11-11-11-11-11-11-11-|
|-4--------4--------4----4----9--9--9--9--9--9--9--9--|
|-2--------2--------2----2----------------------------|

Ending
|--------------------------|
|--------------------------|
|--------------------------|
|-5-----7-----12--9--7--9--|
|-3-----5-----10--7--5--7--|
|--------------------------|
 
 
W.A.S.P. - The Neutron Bomber :: indexed at Ultimate Guitar.
The Neutron Bomber tabs @ 911Tabs
People who played W.A.S.P. - The Neutron Bomber also played these songs by W.A.S.P.:
Miss You Chords, The Titanic Overture Tab, Arena Of Pleasure Tab, Deal With The Devil Chords, Crazy Chords, Im Alive Chords

Quick tip, so you can enjoy The Neutron Bomber even more:

Try out the AutoScroller option ... It scrolls the page for you, so you can totally focus on nailing that solo. You can choose among different speeds using your mouse or your keyboard (keys 0, 1, 2 and 3).

Show us your talent, perform The Neutron Bomber!

Here you can post a video or audio performance. Tell me more ...
Where can we find your performance? Tell me more ...
Your comment:
Please, log in to post your performance.