Artists by letter: A B C D E F G H I J K L M N O P Q R S T U V W X Y Z 0-9

 
Animal Fuck Like A Beast
W.A.S.P.
Animal (Fuck like a beast)

D#||-----------|------------------------|------------------------|
A#||-----------|------------------------|------------------------|
F#||-----------|---------------------5--|------------------------|
C#||-----------|---------------------5--|---------------------7--|
G#||--5--4--2--|------------------------|---------------------7--|
D#||--3--2--0--|------0--0--0--0--0-----|------0--0--0--0--0-----|

------------------------|------------------------|------------------------|
------------------------|------------------------|------------------------|
------------------------|------------------------|---------------------5--|
---------------------5--|----4--5--7----5--4--9--|---------------------5--|
---------------------5--|----4--5--7----5--4--7--|------------------------|
------0--0--0--0--0-----|---------------------0--|------0--0--0--0--0-----|

------------------------|------------------------|------------------------|
------------------------|------------------------|------------------------|
------------------------|------------------------|------------------------|
---------------------7--|---------------------5--|----4--5--7----5--4-----|
---------------------7--|---------------------5--|----4--5--7----5--4--2--|
------0--0--0--0--0-----|------0--0--0--0--0-----|---------------------0--|

------------------------|------------------------|------------------------|
------------------------|------------------------|------------------------|
---------------------5--|------------------------|------------------------|
---------------------5--|---------------------7--|---------------------5--|
------------------------|---------------------7--|---------------------5--|
------0--0--0--0--0-----|------0--0--0--0--0-----|------0--0--0--0--0-----|

------------------------|------------------------|------------------------|
------------------------|------------------------|------------------------|
------------------------|---------------------5--|------------------------|
----4--5--7----5--4--9--|---------------------5--|---------------------7--|
----4--5--7----5--4--7--|------------------------|---------------------7--|
---------------------0--|------0--0--0--0--0-----|------0--0--0--0--0-----|

------------------------|------------------------|------------------------|
------------------------|------------------------|------------------------|
------------------------|------------------------|---------------------5--|
---------------------5--|----4--5--7----5--4-----|---------------------5--|
---------------------5--|----4--5--7----5--4--2--|------------------------|
------0--0--0--0--0-----|---------------------0--|------0--0--0--0--0-----|

------------------------|------------------------|------------------------|
------------------------|------------------------|------------------------|
------------------------|------------------------|------------------------|
---------------------7--|---------------------5--|----4--5--7----5--4--9--|
---------------------7--|---------------------5--|----4--5--7----5--4--7--|
------0--0--0--0--0-----|------0--0--0--0--0-----|---------------------0--|

------------------------|------------------------|------------------|
------------------------|------------------------|------------------|
---------------------5--|------------------------|------------------|
---------------------5--|---------------------2--|------------------|
------------------------|---------------------0--|------------------|
------0--0--0--0--0-----|------0--0--0--0--0-----|------------------|

--------------------------|------------------------|------------------|
--------------------------|------------------------|------------------|
--------------------------|------------------------|------------------|
--------------------------|--9--9--9--7----7--9----|------------------|
--------------------------|--7--7--7--5----5--7----|------------------|
--3--0--0--5--0--0--3--0--|--0--0--0----------0----|------------------|

---------------------|------------------|------------------------|
---------------------|------------------|------------------------|
--7------------------|------------------|------------------------|
--5------7-----------|------------------|--9--9--9--7----7--9----|
---------5------7----|------------------|--7--7--7--5----5--7----|
----------------5----|------------------|--0--0--0----------0----|

------------------|---------------------|------------------|
------------------|---------------------|------------------|
------------------|--7------------------|------------------|
------------------|--5------7-----------|------------------|
------------------|---------5------7----|------------------|
------------------|----------------5----|------------------|

------------------------|------------------|---------------------|
------------------------|------------------|---------------------|
------------------------|------------------|--7------------------|
--9--9--9--7----7--9----|------------------|--5------7-----------|
--7--7--7--5----5--7----|------------------|---------5------7----|
--0--0--0----------0----|------------------|----------------5----|

------------------|------------------------|------------------|
------------------|------------------------|------------------|
------------------|------------------------|------------------|
------------------|--9--9--9--7----7--9----|------------------|
------------------|--7--7--7--5----5--7----|------------------|
------------------|--0--0--0----------0----|------------------|

---------------------|------------------|---------------------|
---------------------|------------------|---------------------|
--7------------------|------------------|--7------------------|
--5------7-----------|------------------|--5------7-----------|
---------5------7----|------------------|---------5------7----|
----------------5----|------------------|----------------5----|

------------------|------------------|-------------------------|
------------------|------------------|-------------------------|
------------------|------------------|----------------------5--|
------------------|------------------|----------------------5--|
------------------|------------------|--2----------------------|
------------------|------------------|--0----0--0--0--0--0-----|

------------------------|------------------------|------------------------|
------------------------|------------------------|------------------------|
------------------------|------------------------|------------------------|
---------------------7--|---------------------5--|----4--5--7----5--4--9--|
---------------------7--|---------------------5--|----4--5--7----5--4--7--|
------0--0--0--0--0-----|------0--0--0--0--0-----|---------------------0--|

------------------------|------------------------|------------------------|
------------------------|------------------------|------------------------|
---------------------5--|------------------------|------------------------|
---------------------5--|---------------------7--|---------------------5--|
------------------------|---------------------7--|---------------------5--|
------0--0--0--0--0-----|------0--0--0--0--0-----|------0--0--0--0--0-----|

------------------------|------------------------|------------------------|
------------------------|------------------------|------------------------|
------------------------|---------------------5--|------------------------|
----4--5--7----5--4-----|---------------------5--|---------------------7--|
----4--5--7----5--4--2--|------------------------|---------------------7--|
---------------------0--|------0--0--0--0--0-----|------0--0--0--0--0-----|

------------------------|------------------------|------------------------|
------------------------|------------------------|------------------------|
------------------------|------------------------|---------------------5--|
---------------------5--|----4--5--7----5--4--9--|---------------------5--|
---------------------5--|----4--5--7----5--4--7--|------------------------|
------0--0--0--0--0-----|---------------------0--|------0--0--0--0--0-----|

------------------------|------------------|--------------------------|
------------------------|------------------|--------------------------|
------------------------|------------------|--------------------------|
---------------------2--|------------------|--------------------------|
---------------------0--|------------------|--------------------------|
------0--0--0--0--0-----|------------------|--3--0--0--5--0--0--3--0--|

------------------------|------------------|---------------------|
------------------------|------------------|---------------------|
------------------------|------------------|--7------------------|
--9--9--9--7----7--9----|------------------|--5------7-----------|
--7--7--7--5----5--7----|------------------|---------5------7----|
--0--0--0----------0----|------------------|----------------5----|

------------------|------------------------|------------------|
------------------|------------------------|------------------|
------------------|------------------------|------------------|
------------------|--9--9--9--7----7--9----|------------------|
------------------|--7--7--7--5----5--7----|------------------|
------------------|--0--0--0----------0----|------------------|

---------------------|------------------|------------------------|
---------------------|------------------|------------------------|
--7------------------|------------------|------------------------|
--5------7-----------|------------------|--9--9--9--7----7--9----|
---------5------7----|------------------|--7--7--7--5----5--7----|
----------------5----|------------------|--0--0--0----------0----|

------------------|---------------------|------------------|
------------------|---------------------|------------------|
------------------|--7------------------|------------------|
------------------|--5------7-----------|------------------|
------------------|---------5------7----|------------------|
------------------|----------------5----|------------------|

------------------------|------------------|---------------------|
------------------------|------------------|---------------------|
------------------------|------------------|--7------------------|
--9--9--9--7----7--9----|------------------|--5------7-----------|
--7--7--7--5----5--7----|------------------|---------5------7----|
--0--0--0----------0----|------------------|----------------5----|

------------------|--------------------|--------------------|
------------------|--------------------|--------------------|
------------------|--9------7----------|--7-----------------|
------------------|--7------5----------|--5-----------------|
------------------|--------------------|---------7----------|
------------------|--------------------|---------5----------|

--------------------|-------------------|--------------------|
--------------------|-------------------|--------------------|
--------------------|-------------------|--9------7----------|
--9-----------------|--9----------------|--7------5----------|
--7--------------5--|--7----------------|--------------------|
--0-----------------|--0----------------|--------------------|

--------------------|---------------------|-----------------------------------|
--------------------|---------------------|-----------------------------8-----|
--7-----------------|---------------------|-----------9--------9-----------9--|
--5-----------------|---------------------|-----5--9-----5--------5-----------|
---------7----------|--9------9------9----|--7--------------7--------7--------|
---------5----------|--7------7------7----|-----------------------------------|

-------------------------|--------------12/14/12--|
--8~---------8-10-8------|------------------------|
--------------------9-9~-|------------------------|
-------------------------|------------------------|
-------------------------|------------------------|
-------------------------|------------------------|

--17b-------15--17--15--17--15--|----------------12----|
--------------------------------|--17~-----------------|
--------------------------------|----------------------|
--------------------------------|----------------------|
--------------------------------|----------------------|
--------------------------------|----------------------|

---------------------------|-------------------------|
-----5------------------5--|-------------12--13--15--|
--4----4-7-4-6-4-4b--------|--4b---------------------|
---------------------------|-------------------------|
---------------------------|-------------------------|
---------------------------|-------------------------|

--------------------------|----------------------|------------------------|
--15b-------15r---12------|--------15b-----------|------------------------|
----------------------14--|--12------------------|------------------------|
--------------------------|----------------------|--9--9--9--7----7--9----|
--------------------------|----------------------|--7--7--7--5----5--7----|
--------------------------|----------------------|--0--0--0----------0----|

------------------|---------------------|------------------|
------------------|---------------------|------------------|
------------------|--7------------------|------------------|
------------------|--5------7-----------|------------------|
------------------|---------5------7----|------------------|
------------------|----------------5----|------------------|

------------------------|------------------|---------------------|
------------------------|------------------|---------------------|
------------------------|------------------|--7------------------|
--9--9--9--7----7--9----|------------------|--5------7-----------|
--7--7--7--5----5--7----|------------------|---------5------7----|
--0--0--0----------0----|------------------|----------------5----|

------------------|------------------------|------------------|
------------------|------------------------|------------------|
------------------|------------------------|------------------|
------------------|--9--9--9--7----7--9----|------------------|
------------------|--7--7--7--5----5--7----|------------------|
------------------|--0--0--0----------0----|------------------|

---------------------|------------------|------------------------|
---------------------|------------------|------------------------|
--7------------------|------------------|------------------------|
--5------7-----------|------------------|--9--9--9--7----7--9----|
---------5------7----|------------------|--7--7--7--5----5--7----|
----------------5----|------------------|--0--0--0----------0----|

------------------|---------------------|------------------|------------------|
------------------|---------------------|------------------|------------------|
------------------|--7------------------|------------------|------------------|
------------------|--5------7-----------|------------------|------------------|
------------------|---------5------7----|------------------|------------------|
------------------|----------------5----|------------------|------------------|

--------------------|--------||
--------------------|--------||
--------------------|--------||
--9---9-------------|--------||
--7---7-------------|--------||
--0---0-------------|--------||



Tabbed by Ed_Hunter


 
 
W.A.S.P. - Animal Fuck Like A Beast :: indexed at Ultimate Guitar.
Animal Fuck Like A Beast tabs @ 911Tabs
People who played W.A.S.P. - Animal Fuck Like A Beast also played these songs by W.A.S.P.:
Miss You Chords, The Titanic Overture Tab, Arena Of Pleasure Tab, Deal With The Devil Chords, Crazy Chords, Im Alive Chords

Quick tip, so you can enjoy Animal Fuck Like A Beast even more:

If you don't really know how to deal with "Absus4" chord and his equally confusing brothers, just put the mouse cursor over them and you will be shown a helpful chord diagram.

Show us your talent, perform Animal Fuck Like A Beast!

Here you can post a video or audio performance. Tell me more ...
Where can we find your performance? Tell me more ...
Your comment:
Please, log in to post your performance.