Artists by letter: A B C D E F G H I J K L M N O P Q R S T U V W X Y Z 0-9

 
Shimmer Tab
[Verse 1]

e|----------------3--------------------3-|
B|----------------3--------------------3-|
G|----------------3--------------------3-|
D|---0-4^5^4^5^4--5-------0-4^5^4^5^4--5-|  repeat this a load of times
A|--0-------------5------0-------------5-|
E|----------------3--------------------3-|


[Chorus]

e|---------------------------------------------------------------------------------|
B|---------------------------------------------------------------------------------|
G|---------------------------------------------------------------------------------|
D|---------------------------------------------------------------------------------|
A|-9-9-9-7-7-7-5-/-9-9-9-7-7-7-5---------------------------------------------------|
E|-7-7-7-5-5-5-3-/-7-7-7-5-5-5-3---------------------------------------------------|


[Verse 2]

e|----------------3--------------------3-|
B|----------------3--------------------3-|
G|----------------3--------------------3-|
D|---0-4^5^4^5^4--5-------0-4^5^4^5^4--5-|  repeat this a load of times
A|--0-------------5------0-------------5-|
E|----------------3--------------------3-|


[Bridge] 

(all tremolo picked)

E|--------------------------------------------------------------------------|
B|--------------------------------------------------------------------------|
G|-9----7----19----18----9--7--6----19----18----6----19----18----7--6--7----| 
D|--------------------------------------------------------------------------|
A|--------------------------------------------------------------------------|
E|--------------------------------------------------------------------------|

E|--------------------------------------------------------------------------|
B|--------------------------------------------------------------------------|
G|-6----7----9----6----7----9-----------------------------------------------| 
D|--------------------------------------------------------------------------|
A|--------------------------------------------------------------------------|
E|--------------------------------------------------------------------------|


************************************

| x   Dead note
| g   Grace note
| (n) Ghost note
| h   Hammer-on
| p   Pull-off
| r   Release
| >   Accented note
| t   Tapping
| b   Bend
| br  Bend release
| pb  Pre-bend
| pbr Pre-bend release
| /   Slide up
| \   Slide down
| ~   Vibrato
| s   Slap
| P   Pop
| PM  Palm mute
| TR  Trill
| N   Tremolo

************************************
 
 
Moose Blood - Shimmer Tab :: indexed at Ultimate Guitar.
Shimmer tabs @ 911Tabs
People who played Moose Blood - Shimmer Tab also played these songs by Moose Blood:
Bukowski Chords, Gum Tab, Carbis Bay Chords, Glow Tab, Cherry Chords, Boston Chords

Quick tip, so you can enjoy Shimmer Tab even more:

You might want to transpose the song if it is too high or too low for you to sing. Just click the desired option while playing a song and all the chords will automatically be transponded into a new key.

Show us your talent, perform Shimmer Tab!

Here you can post a video or audio performance. Tell me more ...
Where can we find your performance? Tell me more ...
Your comment:
Please, log in to post your performance.