Artists by letter: A B C D E F G H I J K L M N O P Q R S T U V W X Y Z 0-9

 
Gum Tab
Track: Gum
Artist: Moose Blood
Album: I'll Keep You In Mind, From Time to Time (2014)
Tuning: Standard E (E A D G B e)

Tabbed by: Noah Maranesi
Website: https://instagram.com/n04hz_ark

Video Playalong: https://youtu.be/wGEJhjmUXmE


Intro

(0:00) (exact strumming not shown)

There are multiple ways to play this chord progression. There are two guitars being played 
  here, which can easily be played on one guitar. (The second guitar is the highest note of
  each chord " this is also in the Verse)

    "Do you wanna come over later to my house..."

   E            C#m    B/D#
e|-------------|-------------|
B|:-7--7--9--9-|------------:|
G|-------------|-8--8--8--8--|
D|--6--6--6--6-|-9--9--9--9--|
A|:-7--7--7--7-|-------6--6-:|
E|--0--0--0--0-|-9--9--------|


Pre-Verse (0:46) (exact strumming not shown)

There are two guitarists playing here, but you can play them both if you
  give enough practise. The first guitar is playing the A chord, while
  the second guitarist is just bending a C#.

    A            x3   A
e|-----------------|--5--|
B|:---------------:|--5--|
G|--6--6--6b7b6-6--|--6--|
D|--7--7--7-----7--|-(7)-|
A|:-7--7--7-----7-:|-(7)-|
E|--5--5--5-----5--|-(5)-|


Verse

(0:52)

Guitar 1 (exact strumming not shown)

   E            C#m    B/D#      A         x3  A
e|-------------|-------------||--------------|-5-|
B|:-7--7--7--7-|------------:||:------------:|-5-|
G|-------------|-8--8--8--8--||--6--6--6--6--|-6-|
D|--6--6--6--6-|-9--9--9--9--||--7--7--7--7--|-7-|
A|:-7--7--7--7-|-------6--6-:||:-7--7--7--7-:|-7-|
E|--0--0--0--0-|-9--9--------||--5--5--5--5--|-5-|

Guitar 2
                                                  x6
e|-----0-----0-----0-----0-----0-----0-----0-----0--|
B|:-7-----7-----9-----9----------------------------:|
G|--------------------------8-----8-----8-----8-----|
D|--------------------------------------------------|
A|:------------------------------------------------:|
E|--------------------------------------------------|


Break

(1:33) (exact strumming not shown)

    "Smile like you do!"

   F#m    A                  D         F#m    A         E     F#m
e|----------------|----------2---2-2-|----------------|--------------|
B|--------0---0-0-|----------3---3-3-|--------0---0-0-|--------------|
G|-2--2---2---2-2-|----------2---2-2-|-2--2---2---2-2-|-1-1-1-2--2-2-|
D|-2--2---2---2-2-|-----2----0---0-0-|-2--2---2---2-2-|-2-2-2-2--2-2-|
A|--------0---0-0-|-2-4---0-(0)------|--------0---0-0-|-2-2-2--------|
E|-2--2-----------|------------------|-2--2-----------|-0-0-0-2--2-2-|


Verse

(1:56)

    "Stay with me tonight..."

Guitar 1 (exact strumming not shown)

   F#m   A     E     F#m
e|------------------------|
B|-------0--0--0--0-------|
G|-2--2--2--2--1--1--2--2-|
D|-2--2--2--2--2--2--2--2-|
A|-------0--0--2--2-------|
E|-2--2--------0--0--2--2-|

Guitar 2

e|-----------------------------|
B|-5--5------------------------|
G|-------4/6--6--6--6/4---2--2-|
D|-----------------------------|
A|-----------------------------|
E|-----------------------------|


Outro

(2:43) (exact strumming not shown)

   F#m    A                  D         F#m    A         E     F#m
e|----------------|----------2---2-2-|----------------|--------------|
B|--------0---0-0-|----------3---3-3-|--------0---0-0-|--------------|
G|-2--2---2---2-2-|----------2---2-2-|-2--2---2---2-2-|-1-1-1-2~~----|
D|-2--2---2---2-2-|-----2----0---0-0-|-2--2---2---2-2-|-2-2-2-2~~----|
A|--------0---0-0-|-2-4---0-(0)------|--------0---0-0-|-2-2-2--------|
E|-2--2-----------|------------------|-2--2-----------|-0-0-0-2~~----|
 
 
Moose Blood - Gum Tab :: indexed at Ultimate Guitar.
Gum tabs @ 911Tabs
People who played Moose Blood - Gum Tab also played these songs by Moose Blood:
Bukowski Chords, Gum Tab, Carbis Bay Chords, Glow Tab, Cherry Chords, Boston Chords

Quick tip, so you can enjoy Gum Tab even more:

Try out the AutoScroller option ... It scrolls the page for you, so you can totally focus on nailing that solo. You can choose among different speeds using your mouse or your keyboard (keys 0, 1, 2 and 3).

Show us your talent, perform Gum Tab!

Here you can post a video or audio performance. Tell me more ...
Where can we find your performance? Tell me more ...
Your comment:
Please, log in to post your performance.