Artists by letter: A B C D E F G H I J K L M N O P Q R S T U V W X Y Z 0-9

 
Les Syndicats Tab
=============
LES SYNDICATS
=============
par Jelloul ([email protected])


intro: Gm  Gm7 Gm6
------
   Gm    Gm7   Gm6
e||--------3-3---3-3---||
B||--------5-5---4-4---|| 
G||--------3-3---3-3---||
D||-5-5----------------||
A||-5-5----------------||
E||-3-3----------------||
   Plage...


"Plage, soleil...Est-ce que t'as pense aux chips ?
Plage, soleil...Ben voui !
Plage, soleil...J'oublie jamais les chips... "

puis Bm Bm7 Bm6
  Bm   Bm7 Bm6
e||-2-x--5---4-4---4-4-4-4-||
B||-3-x--3---3-3---3-3-3-3-||  La aussi y a que le petit doigt qui bouge
G||-4-x--2---2-2---2-2-2-2-||
D||-4-x--4---4-4---4-4-4-4-||
A||------------------------||
E||------------------------||

"C'est vrai, parce que c'est important les chips, surtout en camping
La premicre est bonne mais ca devient vite écoeurant
et pis faut du jambon aussi..."

Couplet: Bm  E  Bm  G  F#  Bm
--------

  Bm   Bm7 Bm6             Bm   Bm7 Bm6      Bm7
e|-2-x--5---4-4---4-4-4-4-|-2-x--5---4-4---4--2-2-2---|
B|-3-x--3---3-3---3-3-3-3-|-3-x--3---3-3---3--3-3-3---|
G|-4-x--2---2-2---2-2-2-2-|-4-x--2---2-2---2--2-2-2---|
D|-4-x--4---4-4---4-4-4-4-|-4-x--4---4-4---4--4-4-4---|
A|------------------------|---------------------------|
E|------------------------|---------------------------|

Bm          Bm7 Bm6                               Bm      Bm7 Bm6 Bm7
Aujourd'hui il  pleut, qu'est-ce qu'on va pouvoir faire...

  E   E4  E              Bm   Bm7  Bm6     Bm7
e|-7-x-7---7-7--7-7-7-7---2-x--5----4-4---4-2-2-2-----|
B|-9-x-10--9-9--9-9-9-9---3-x--3----3-3---3-3-3-3-----|
G|-9-x-9---9-9--9-9-9-9---4-x--2----2-2---2-2-2-2-----|
D|-9-x-9---9-9--9-9-9-9---4-x--4----4-4---4-4-4-4-----|
A|----------------------------------------------------|
E|----------------------------------------------------|

E         E4 E               Bm         Bm7  Bm6  Bm7
Visiter l'ég-lise ou bien le presbytcre


G                          F#                             Bm
Mais ca ne va tout de même pas nous prendre une journée enticre
G             E         F#                            Bm
Que faire, que faire que faire quand on ne va pas à la mer

E                                                                E F F#
Pour nous tirer d'ce mauvais pas, une solution nous tend les bras
G                               F# (une seule fois et sec)
Les syndicats d'initiative......Sont fait pour ceux qui en ont pas!!


Apres ca utilise ces  accords: 
Am7:577555 Am7:577557  A#m:688666  A#m7:688668

Am  Am7
Des brochures, des dépliants, des mailings, des publicités
A#mA#m7
Pour des excursions, des tours, des ballades et des visites guidées
Am Am7
Des tonnes et des tonnes de papiers sur des sites à ne pas manquer
    A#m Am      G    F#               Bm Bm7 Bm6 (comme au début)
Sans oublier les souvenirs pour la cheminée


Couplet:
Il est tard il pleut mais on s'est bien promené
En voiture au sec on a tout admiré
Pour une si belle excursion l'appareil photo est de mise
Les photos sont un peu floues le point s'est fait sur le pare-brise
Pour nous tirer d'ce mauvais pas
Une Solution nous tend les bras
Les belles photos du syndicat... sont faites pour ceux qui n'en n'ont pas!
Les falaises, les chutes d'eau et l'éternel goulet du diable
Des grottes et des grottes et des grottes et des grottes de Neandertal
La charcuterie et son fameux boudin local

(Ici, il joue le Bm Bm7 Bm6  puis on entend le synthé, la guitare joue Cm,
puis Bm Cm, puis on recommence le couplet, mais tous les accords sont
augmentés d'un demi ton. Au lieu de Bm6,faudra jouer Cm6 par ex)

couplet: Cm Cm7 Cm6  F F4 F    G# G Cm  G# F G Cm

Cm        Cm7 Cm6                         Cm Cm7 Cm6 Cm7
Encore de la  pluie c'est sur nous que ça tombe
F       F4 F                        Cm  Cm7 Cm6 Cm7
Et la mété-o annonce trois jours de trombe
G#                     G                     Cm
Les ressources du syndicat d'initiative sont épuisées
G#                          G                              Cm
J'm'en souviendrai de ces vacances nous dit maman toute la journée
F                                                                F F# G
Pour nous tirer d'ce mauvais pas Hélas nous n'avons pas le choix
G#                                  G
De sa bonne vieille valise en bois... grand mcre nous sort un jeu de
l'oie

ensuite on utilise les Riffs:

   F4*
e||-----8--8------8---8----||
B||-----11-11-----11--11---||
G||-----10-10-----10--11---||
D||--8---------------------||
A||------------8-----------||
E||------------------------||

et
  F#4*
e||-----9--9------9---9----||
B||-----12-12-----12--12---||
G||-----11-11-----11--11---||
D||--9---------------------||
A||------------9-----------||
E||------------------------||

F4*
Un Scrabble, des dominos, un poker d'as et des p'tits chevaux
F#4*
Un nain jaune, des mots croisés, un roudoudou, un Cluédo
F4*
Des dames, des dadas et des dés des tas d'idées de jeux de dés

    C#  C       A      G#           Cm  Cm7  Cm6 (reprise couplet)
Sans oublier les jolies perles à enfiler




couplet:
Voici donc venu le jour de la rentrée
Deux jours d'embouteillages nous voici arrivés
Mais suite a une panne de courant alors que nous étions partis
Le thermostat du congélo a disjoncté tout est pourri
Pour nous tirer d'ce mauvais pas
Une Solution nous tend les bras
Car pour nous faire tout oublier... heureusement il y a la télé

(ici on joue la même chose que pour le premier refrain, mais en ajoutant
1/2 ton: A#m A#m7 Bm Bm7 )

A#m A#m7
Jacques Martin, Fort Boyard, le juste prix et top modcles
Bm Bm7
Navaro, Taratata, bas les masques et tournez mancge
A#m A#m7
Dorothée, Dorothée, Dorothée et Dorothée...

Gm  Gm7 Gm6 ( l'intro )
Plage,  Soleil...





 
 
Nonnes Troppo - Les Syndicats Tab :: indexed at Ultimate Guitar.
Les Syndicats tabs @ 911Tabs
People who played Nonnes Troppo - Les Syndicats Tab also played these songs by Nonnes Troppo:
La Grange Tab, Le Chat Tab, Les Feux De La Seine Chords, Touristralala Chords, Une Graine Tab, Le Velo Tab

Quick tip, so you can enjoy Les Syndicats Tab even more:

After the registration (which takes just 10 seconds, remember?) you will be able to use your profile - your very own piece of YourChords.com.

Show us your talent, perform Les Syndicats Tab!

Here you can post a video or audio performance. Tell me more ...
Where can we find your performance? Tell me more ...
Your comment:
Please, log in to post your performance.