Artists by letter: A B C D E F G H I J K L M N O P Q R S T U V W X Y Z 0-9

 
Closer To God Tab
this is the song "closer to god" by NIN from THE DOWNWARD SPIRAL. it is featured on disc
of the Deluxe Edition and is a remix to the song "closer"
STANDARD TUNING

=slide
h=hammer-on
b=bend string

Beginning (all of this is played really fast)
1----------------------------------|
2----------------------------------|
3----------------------------------|
4--0(really fast 24 times)---------|
5------5-7-------------------------|
6----------6-----------------------|

this part is around 1:37 in the song, and i think it is actually played on the keyboard
(play multiple times)
1----------------------------------|
2----------------------------------|
3----------------------------------|
4----------------------------------|
5---66h77h88h99--------------------|
6----------------------------------|

pre-chorus  this part is sorta a screech sound...i think this sounds pretty close

1----------------------------------|
2----424--------------------------|     "24" not "2...4"
3----424--------------------------|
4----------------------------------|
5----------------------------------|
6----------------------------------|

chorus

1---------------------------------|
2---------------------------------|
3---------------------------------|
4--10-10-10----4-4----------------|
5--10-10-10----4-4----------------|
6---8--8--8----2-2b---------------|

there ya go! theres a lot of other stuff going on in the song, but i think that this is 
of the guitar parts. listen to the song to get the # of times you play each part and timing

Random_Hero

 
 
Nine Inch Nails - Closer To God Tab :: indexed at Ultimate Guitar.
Closer To God tabs @ 911Tabs

About the artist behind Closer To God Tab:

Nine Inch Nails (abbreviated as NIN) is an American industrial rock band, founded in 1988 by Trent Reznor in Cleveland, Ohio. As its main producer, singer, songwriter, and instrumentalist, Reznor is the only official member of Nine Inch Nails and remains solely responsible for its direction.[1] NIN's music straddles a wide range of genres, while retaining a characteristic sound using electronic instruments and processing. After recording a new album, Reznor usually assembles a live band to perform with him. The touring band features a revolving lineup that often rearranges songs to fit a live performance setting. On stage, NIN often employs spectacular visual elements to accompany its performances, which frequently culminate with the band destroying their instruments.[2]

Underground music audiences warmly received Nine Inch Nails in its early years. The band produced several highly influential records in the 1990s that achieved widespread popularity: many Nine Inch Nails songs became radio hits,[3] two NIN recordings won Grammy Awards, and the band has sold over twenty million albums worldwide,[4] with 11 million sales certified in the US alone.[5] In 2004, Rolling Stone placed Nine Inch Nails at 94 on its list of the 100 greatest rock artists of all time.[6] In spite of this acclaim, the band has had several feuds with the corporate side of the recording industry. In 2007, Trent Reznor announced that Nine Inch Nails would release music independently of record labels.[7]

Nine Inch Nails' 2008 album, Ghosts I–IV, was first released online in a variety of digital and physical formats via the band's official website. Just over two months after the release of Ghosts I-IV, the band released another full-length studio album, The Slip, entirely free of charge.

Indexed at Wikipedia.

Show us your talent, perform Closer To God Tab!

Here you can post a video or audio performance. Tell me more ...
Where can we find your performance? Tell me more ...
Your comment:
Please, log in to post your performance.