Artists by letter: A B C D E F G H I J K L M N O P Q R S T U V W X Y Z 0-9

 
Let Me Love You Tab
DJ Snake 
Let Me Love You
Chords

Cm x35543
Eb x65343 or x68886
G# 466544
Bb 688766
Fm 133111


This song is made up of 3 riffs

the breakdown
e-----------------------------------------------------------------------------|
B-----------------------------------------------------------------------------|
G-----------------------------------------------------------------------------|
D--------5-3--------5-3--------5-3---------5-3-----6-5------------6-5---------|
A----3--------6-6--------6-6---------6-6--------6------3--3h6p3--------3------|
E-----------------------------------------------------------------------------|


[Verses and Chorus]

          Cm        Eb          G#         G# 
e---------3---------3-----------4----------4---------------|
B---------4---------4-----------4----------4---------------|
G---------5---------3-----------5----------5---------------|
D---------5---------5-----------6----------6---------------|
A---------3---------6-----------6----------6---------------|
E-------------------------------4----------4---------------|


[Pre-Chorus]

         G#         Cm          Bb         Fm  
e--------4----------8-----------6----------1---------------|
B--------4----------8-----------6----------1---------------|
G--------5----------8-----------7----------1---------------|
D--------6----------10----------8----------3---------------|
A--------6----------10----------8----------3---------------|
E--------4----------8-----------6----------1---------------|


[Verse]

          Cm        Eb          G#         G# 
e---------3---------3-----------4----------4---------------|
B---------4---------4-----------4----------4---------------|
G---------5---------3-----------5----------5---------------|
D---------5---------5-----------6----------6---------------|
A---------3---------6-----------6----------6---------------|
E-------------------------------4----------4---------------|

I used to believe
We were burnin' on the edge of somethin' beautiful
Somethin' beautiful
Sellin' a dream
Smoke and mirrors keep us waitin' on a miracle
On a miracle


[Pre-Chorus]

         G#         Cm          Bb         Fm  
e--------4----------8-----------6----------1---------------|
B--------4----------8-----------6----------1---------------|
G--------5----------8-----------7----------1---------------|
D--------6----------10----------8----------3---------------|
A--------6----------10----------8----------3---------------|
E--------4----------8-----------6----------1---------------|

Say, go through the darkest of days
Heaven's a heartbreak away
Never let you go, never let me down
Oh, it's been a hell of a ride
Driving the edge of a knife
Never let you go, never let me down


[Chorus]

          Cm        Eb          G#         G# 
e---------3---------3-----------4----------4---------------|
B---------4---------4-----------4----------4---------------|
G---------5---------3-----------5----------5---------------|
D---------5---------5-----------6----------6---------------|
A---------3---------6-----------6----------6---------------|
E-------------------------------4----------4---------------|

Don't you give up, nah-nah-nah
I won't give up, nah-nah-nah
Let me love you
Let me love you
Don't you give up, nah-nah-nah
I won't give up, nah-nah-nah
Let me love you
Let me love you
Oh baby, baby


[Breakdown]

e-----------------------------------------------------------------------------|
B-----------------------------------------------------------------------------|
G-----------------------------------------------------------------------------|
D--------5-3--------5-3--------5-3---------5-3-----6-5------------6-5---------|
A----3--------6-6--------6-6---------6-6--------6------3--3h6p3--------3------|
E-----------------------------------------------------------------------------|


[Verse]

          Cm        Eb          G#         G# 
e---------3---------3-----------4----------4---------------|
B---------4---------4-----------4----------4---------------|
G---------5---------3-----------5----------5---------------|
D---------5---------5-----------6----------6---------------|
A---------3---------6-----------6----------6---------------|
E-------------------------------4----------4---------------|

Don't fall asleep
At the wheel, we've got a million miles ahead of us
Miles ahead of us
All that we need
Is a rude awakening to know we're good enough
Know we're good enough


[Pre-Chorus]

         G#         Cm          Bb         Fm  
e--------4----------8-----------6----------1---------------|
B--------4----------8-----------6----------1---------------|
G--------5----------8-----------7----------1---------------|
D--------6----------10----------8----------3---------------|
A--------6----------10----------8----------3---------------|
E--------4----------8-----------6----------1---------------|

Say go through the darkest of days
Heaven's a heartbreak away
Never let you go, never let me down
Oh it's been a hell of a ride
Driving the edge of a knife
Never let you go, never let me down


[Chorus]

          Cm        Eb          G#         G# 
e---------3---------3-----------4----------4---------------|
B---------4---------4-----------4----------4---------------|
G---------5---------3-----------5----------5---------------|
D---------5---------5-----------6----------6---------------|
A---------3---------6-----------6----------6---------------|
E-------------------------------4----------4---------------|

Don't you give up, nah-nah-nah
I won't give up, nah-nah-nah
Let me love you
Let me love you
Don't you give up, nah-nah-nah
I won't give up, nah-nah-nah
Let me love you
Let me love you
Oh baby, baby


[Breakdown]

e-----------------------------------------------------------------------------|
B-----------------------------------------------------------------------------|
G-----------------------------------------------------------------------------|
D--------5-3--------5-3--------5-3---------5-3-----6-5------------6-5---------|
A----3--------6-6--------6-6---------6-6--------6------3--3h6p3--------3------|
E-----------------------------------------------------------------------------|


[Chorus]

          Cm        Eb          G#         G# 
e---------3---------3-----------4----------4---------------|
B---------4---------4-----------4----------4---------------|
G---------5---------3-----------5----------5---------------|
D---------5---------5-----------6----------6---------------|
A---------3---------6-----------6----------6---------------|
E-------------------------------4----------4---------------|

Don't you give up, nah-nah-nah
I won't give up, nah-nah-nah
Let me love you
Let me love you
Don't you give up, nah-nah-nah
I won't give up, nah-nah-nah
Let me love you
Let me love you
Oh baby, baby



************************************

| h  Hammer-on
| p  Pull-off

************************************
 
 
dj snake - Let Me Love You Tab :: indexed at Ultimate Guitar.
Let Me Love You tabs @ 911Tabs
People who played dj snake - Let Me Love You Tab also played these songs by dj snake:
Let Me Love You Chords, Middle Chords, Let Me Love You Chords, Let Me Love You Acoustic Chords, Let Me Love You Chords, Talk Chords

Quick tip, so you can enjoy Let Me Love You Tab even more:

Try out the AutoScroller option ... It scrolls the page for you, so you can totally focus on nailing that solo. You can choose among different speeds using your mouse or your keyboard (keys 0, 1, 2 and 3).

Show us your talent, perform Let Me Love You Tab!

Here you can post a video or audio performance. Tell me more ...
Where can we find your performance? Tell me more ...
Your comment:
Please, log in to post your performance.