Artists by letter: A B C D E F G H I J K L M N O P Q R S T U V W X Y Z 0-9

 
Blood Of Bannockburn Tab
[Intro]


e|---------------------------------------------------------------------------|
B|---------------------------------------------------------------------------|
G|-12-0-0-9-0-0-10-0-0-7-0-0-10-9-7-0-0-9-0-0-5-0-0-7-0-0-4-0-0-4-5-7--------| 4 times
D|---------------------------------------------------------------------------|
A|---------------------------------------------------------------------------|
E|---------------------------------------------------------------------------|


[Verse]

e|---------------------------------------------------------------------------|
B|---------------------------------------------------------------------------|
G|---------------------------------------------------------------------------|
D|---------------------------------------------------------------------------|
A|-----------5-----------------------------3---3----3-----3/5----------------|
E|-----------3-3-3-3-3-3-3-3-3-3-3-3-3-3-3-1---1----1-----1/3----------------|
Now that our time has come to fight        Scotland must unite

e|---------------------------------------------------------------------------|
B|---------------------------------------------------------------------------|
G|---------------------------------------------------------------------------|
D|---------------------------------------------------------------------------|
A|-------------------------------------------3--3--3--3/5--------------------|
E|-3-3-3-3-3-3-3-3-3-3-3-3-3-3-3-3-3-3-3-3-3-1--1--1--1/3--------------------| 3 times 


[Chorus]

e|---------------------------------------------------------------------------|
B|---------------------------------------------------------------------------|
G|------------12-0-0-9-0-0-10-0-0-7-0-0-10-9-7-0-0-9-5-0-0-7-0-0-4-0-0-4-5-7-|
D|---------------------------------------------------------------------------|
A|---------------------------------------------------------------------------|
E|-3-3-3-3-3-3---------------------------------------------------------------|



************************************

| /  Slide up

************************************
 
 
Sabaton - Blood Of Bannockburn Tab :: indexed at Ultimate Guitar.
Blood Of Bannockburn tabs @ 911Tabs
People who played Sabaton - Blood Of Bannockburn Tab also played these songs by Sabaton:
The Final Solution Chords, En Livstid I Krig Chords, Ghost Division Tab, The Ballad Of Bull Chords, Primo Victoria Tab, Karolinens Bon Chords

Quick tip, so you can enjoy Blood Of Bannockburn Tab even more:

Try out the AutoScroller option ... It scrolls the page for you, so you can totally focus on nailing that solo. You can choose among different speeds using your mouse or your keyboard (keys 0, 1, 2 and 3).

Show us your talent, perform Blood Of Bannockburn Tab!

Here you can post a video or audio performance. Tell me more ...
Where can we find your performance? Tell me more ...
Your comment:
Please, log in to post your performance.