Artists by letter: A B C D E F G H I J K L M N O P Q R S T U V W X Y Z 0-9

 
Sway Tab
Hey, so this is my 2nd tab, my first tab seemed to be pretty well recieved so heres the 2nd!
Moose Blood - Sway
Video of me playing this song: https://www.youtube.com/watch?v=ZzEoFuEFtKI
Show me some love! I enjoy any constructive criticisms or feedback on my content and tabs!
Thank you for checking this out :)


[Intro / Verse]

e|---------------------------------------------------------------------------| x7
B|---------------------------------------------------------------------------|
G|--7-----9-----7-----9-----6-----9-----6-----9------------------------------|
D|-----7-----7-----7-----7-----7-----7-----7-----7---------------------------|
A|---------------------------------------------------------------------------|
E|---------------------------------------------------------------------------|

[Chorus]

e|---------------------------------------------------------------------------| x4
B|-7------7------7-----5-----5-----5-----------------------------------------|
G|---7------7------7-----7-----7-----7---------------------------------------|
D|-----7------7------------7-----7-------------------------------------------|
A|---------------------------------------------------------------------------|
E|---------------------------------------------------------------------------|

[Verse 2]

e|---------------------------------------------------------------------------| x4
B|---------------------------------------------------------------------------|
G|--7-----9-----7-----9-----6-----9-----6-----9------------------------------|
D|-----7-----7-----7-----7-----7-----7-----7-----7---------------------------|
A|---------------------------------------------------------------------------|
E|---------------------------------------------------------------------------|


[Chorus]

e|---------------------------------------------------------------------------| x4
B|-7------7------7-----5-----5-----5-----------------------------------------|
G|---7------7------7-----7-----7-----7---------------------------------------|
D|-----7------7------------7-----7-------------------------------------------|
A|---------------------------------------------------------------------------|
E|---------------------------------------------------------------------------|


[Middle 8]

e|---------------------------------------------------------------------------|(Throughout the entire section)
B|---------------------------------------------------------------------------|
G|--7-7-7-7-7-7-7-7-7-7-7-7-7-7-7-7-7-7-7-7-7-7-7-7-7-7-7-7-7-7-7-7-7-7-7-7-7|
D|--7-7-7-7-7-7-7-7-7-7-7-7-7-7-7-7-7-7-7-7-7-7-7-7-7-7-7-7-7-7-7-7-7-7-7-7-7|
A|---------------------------------------------------------------------------|
E|---------------------------------------------------------------------------|

[Harmonics over chord in Middle 8] (Kicks in halfway through the Middle 8)
                                                        x3| (And then Let this ring into the Chorus)
e|--------------------------------------------------------|-------------------| 
B|--------------------------------------------------------|-------------------|
G|------7*----7*---------------12*----12*-----------------|----7*-------------|
D|---7*-------------------------------------7*------------|-------------------|
A|----------------9*----9*--------------------------------|-------------------|
E|--------------------------------------------------------|-------------------|

[Chorus] (In the video I do play the Verse part, as I thought it mixed well with the chorus already playing 
          over it, so do what you think sounds best!) 

e|---------------------------------------------------------------------------| x4
B|-7------7------7-----5-----5-----5-----------------------------------------|
G|---7------7------7-----7-----7-----7---------------------------------------|
D|-----7------7------------7-----7-------------------------------------------|
A|---------------------------------------------------------------------------|
E|---------------------------------------------------------------------------|

[Outro]
                                                x4     End on
e|---------------------------------------------------|------------------------| 
B|-10---10---10---10---10---10----7----8-------------|--10~~~~----------------|
G|----7----7----7----7----7----7----7----7-----------|------------------------|
D|---------------------------------------------------|------------------------|
A|---------------------------------------------------|------------------------|
E|---------------------------------------------------|------------------------|

[Harmonics over outro]

e|---------------------------------------------------------------------------| x2
B|---------------------------------------------------------------------------|
G|------7*----7*---------------12*----12*------------------------------------|
D|---7*-------------------------------------7*-------------------------------|
A|----------------9*----9*---------------------------------------------------|
E|---------------------------------------------------------------------------|


Thank you again for using my tab! Hope it helped anyone who wanted it! :)

 
 
Moose Blood - Sway Tab :: indexed at Ultimate Guitar.
Sway tabs @ 911Tabs
People who played Moose Blood - Sway Tab also played these songs by Moose Blood:
Bukowski Chords, Gum Tab, Carbis Bay Chords, Glow Tab, Cherry Chords, Boston Chords

Quick tip, so you can enjoy Sway Tab even more:

After the registration (which takes just 10 seconds, remember?) you will be able to use your profile - your very own piece of YourChords.com.

Show us your talent, perform Sway Tab!

Here you can post a video or audio performance. Tell me more ...
Where can we find your performance? Tell me more ...
Your comment:
Please, log in to post your performance.