Artists by letter: A B C D E F G H I J K L M N O P Q R S T U V W X Y Z 0-9

 
Spring Tab
Track: Spring
Artist: Moose Blood
Album: Blush (2016)
Tuning: Standard E (E A D G B e)

Tabbed by: Noah Maranesi
Website: https://instagram.com/n04hz_ark

For Lenah


Intro (0:01)

This is the way I like to play this song. It utilises all 6 strings. However you can play
  it with the root note on the A string instead, similar to how Foo Fighters play "Best of You"

   Cm                      B                      A                      A                  x2
e|-----------0------0----|-----------0------0---|-----------0------0---|-----------0------0---|
B|-----------0------0----|-----------0------0---|-----------0------0---|-----------0------0---|
G|-9-----9-------9----9--|-8-----8-------8----8-|-6-----6-------6----6-|-6-----6-------6----6-|
D|-11----11------11---11-|-9-----9-------9----9-|-7-----7-------7----7-|-7-----7-------7----7-|
A|-11----11------11---11-|-9-----9-------9----9-|-7-----7-------7----7-|-7-----7-------7----7-|
E|-9-----9-------9----9--|-7-----7-------7----7-|-5-----5-------5----5-|-5-----5-------5----5-|

This is the way Moose Blood most likely play the song. You can add an additional finger onto the
  B string to add dissonance to the B chord (since you would be playing D# and E)

   Cm                      B                      A                      A                  x2
e|-----------0------0----|-----------0------0---|-----------0------0---|-----------0------0---|
B|-----------0------0----|-----------0------0---|-----------0------0---|-----------0------0---|
G|-6-----6-------6----6--|-4-----4-------4----4-|-2-----2-------2----2-|-2-----2-------2----2-|
D|-6-----6-------6----6--|-4-----4-------4----4-|-2-----2-------2----2-|-2-----2-------2----2-|
A|-4-----4-------4----4--|-2-----2-------2----2-|-0-----0-------0----0-|-0-----0-------0----0-|
E|-----------------------|----------------------|----------------------|----------------------|


Verse (0:25) (same as Intro)

    "I could've changed your mind..."

   Cm                      B                      A                      A                  x4
e|-----------0------0----|-----------0------0---|-----------0------0---|-----------0------0---|
B|-----------0------0----|-----------0------0---|-----------0------0---|-----------0------0---|
G|-6-----6-------6----6--|-4-----4-------4----4-|-2-----2-------2----2-|-2-----2-------2----2-|
D|-6-----6-------6----6--|-4-----4-------4----4-|-2-----2-------2----2-|-2-----2-------2----2-|
A|-4-----4-------4----4--|-2-----2-------2----2-|-0-----0-------0----0-|-0-----0-------0----0-|
E|-----------------------|----------------------|----------------------|----------------------|


Chorus (1:11)

    "And the way you died..."

   E/G#                    Amaj9                  E/G#                   Amaj9
e|-----------0------0----|-----------0------0---|-----------0------0---|-----------0------0---|
B|-----------0------0----|-----------0------0---|-----------0------0---|-----------0------0---|
G|-6-----6-------6----6--|-6-----6-------6----6-|-6-----6-------6----6-|-6-----6-------6----6-|
D|-6-----6-------6----6--|-6-----6-------6----6-|-6-----6-------6----6-|-6-----6-------6----6-|
A|-7-----7-------7----7--|-7-----7-------7----7-|-7-----7-------7----7-|-7-----7-------7----7-|
E|-4-----4-------4----4--|-5-----5-------5----5-|-4-----4-------4----4-|-5-----5-------5----5-|

   E/G#                    Amaj9                  E/G#                   Amaj9
e|-----------0------0----|-----------0------0---|-----------0------0---|----------------------|
B|-----------0------0----|-----------0------0---|-----------0------0---|---0------------------|
G|-6-----6-------6----6--|-6-----6-------6----6-|-6-----6-------6----6-|----------------------|
D|-6-----6-------6----6--|-6-----6-------6----6-|-6-----6-------6----6-|-6--------------------|
A|-7-----7-------7----7--|-7-----7-------7----7-|-7-----7-------7----7-|-7--------------------|
E|-4-----4-------4----4--|-5-----5-------5----5-|-4-----4-------4----4-|-5--------------------|


Pre-Verse (1:34) (same as Verse)

   Cm                      B                      A                      A                  x2
e|-----------0------0----|-----------0------0---|-----------0------0---|-----------0------0---|
B|-----------0------0----|-----------0------0---|-----------0------0---|-----------0------0---|
G|-6-----6-------6----6--|-4-----4-------4----4-|-2-----2-------2----2-|-2-----2-------2----2-|
D|-6-----6-------6----6--|-4-----4-------4----4-|-2-----2-------2----2-|-2-----2-------2----2-|
A|-4-----4-------4----4--|-2-----2-------2----2-|-0-----0-------0----0-|-0-----0-------0----0-|
E|-----------------------|----------------------|----------------------|----------------------|


Verse (1:58)

    "And I swear at times I can hear your voice..."

   Cm                      B                      A                      A                  x2
e|-----------0------0----|-----------0------0---|-----------0------0---|-----------0------0---|
B|-----------0------0----|-----------0------0---|-----------0------0---|-----------0------0---|
G|-6-----6-------6----6--|-4-----4-------4----4-|-2-----2-------2----2-|-2-----2-------2----2-|
D|-6-----6-------6----6--|-4-----4-------4----4-|-2-----2-------2----2-|-2-----2-------2----2-|
A|-4-----4-------4----4--|-2-----2-------2----2-|-0-----0-------0----0-|-0-----0-------0----0-|
E|-----------------------|----------------------|----------------------|----------------------|


Chorus (2:22)

    "And the way you died..."

   E/G#                    Amaj9                  E/G#                   Amaj9
e|-----------0------0----|-----------0------0---|-----------0------0---|-----------0------0---|
B|-----------0------0----|-----------0------0---|-----------0------0---|-----------0------0---|
G|-6-----6-------6----6--|-6-----6-------6----6-|-6-----6-------6----6-|-6-----6-------6----6-|
D|-6-----6-------6----6--|-6-----6-------6----6-|-6-----6-------6----6-|-6-----6-------6----6-|
A|-7-----7-------7----7--|-7-----7-------7----7-|-7-----7-------7----7-|-7-----7-------7----7-|
E|-4-----4-------4----4--|-5-----5-------5----5-|-4-----4-------4----4-|-5-----5-------5----5-|

   E/G#                    Amaj9                  E/G#                   Amaj9
e|-----------0------0----|-----------0------0---|-----------0------0---|----------------------|
B|-----------0------0----|-----------0------0---|-----------0------0---|---0------------------|
G|-6-----6-------6----6--|-6-----6-------6----6-|-6-----6-------6----6-|----------------------|
D|-6-----6-------6----6--|-6-----6-------6----6-|-6-----6-------6----6-|-6--------------------|
A|-7-----7-------7----7--|-7-----7-------7----7-|-7-----7-------7----7-|-7--------------------|
E|-4-----4-------4----4--|-5-----5-------5----5-|-4-----4-------4----4-|-5--------------------|

 
 
Moose Blood - Spring Tab :: indexed at Ultimate Guitar.
Spring tabs @ 911Tabs
People who played Moose Blood - Spring Tab also played these songs by Moose Blood:
Bukowski Chords, Gum Tab, Carbis Bay Chords, Glow Tab, Cherry Chords, Boston Chords

Quick tip, so you can enjoy Spring Tab even more:

Try out the AutoScroller option ... It scrolls the page for you, so you can totally focus on nailing that solo. You can choose among different speeds using your mouse or your keyboard (keys 0, 1, 2 and 3).

Show us your talent, perform Spring Tab!

Here you can post a video or audio performance. Tell me more ...
Where can we find your performance? Tell me more ...
Your comment:
Please, log in to post your performance.