Artists by letter: A B C D E F G H I J K L M N O P Q R S T U V W X Y Z 0-9

 
Moving Home Tab
MOVING HOME
MOOSE BLOOD
MOVING HOME


[Intro/Verse 1]

e|-----0-------0----------0-------0------------------|
B|---2---2---2---2------2---2---2---2----------------|
G|---------4------------------4----------------------| keep repeating
D|--------------------0------------------------------|
A|-0-------------------------------------------------|
E|---------------------------------------------------|

[Chorus]

e|-0-0-0-0-0-0-0-0-0-0-0-0-0-0-0-0--0-0-0-0-0-0-0-0-0-0-0-0-0-0-0-0--|
B|-0-0-0-0-0-0-0-0-0-0-0-0-0-0-0-0--0-0-0-0-0-0-0-0-0-0-0-0-0-0-0-0--|
G|-7-7-7-7-7-7-7-7-7-7-7-7-7-7-7-7--6-6-6-6-6-6-6-6-6-6-6-6-6-6-6-6--| 
D|-7-7-7-7-7-7-7-7-7-7-7-7-7-7-7-7--7-7-7-7-7-7-7-7-7-7-7-7-7-7-7-7--|
A|-5-5-5-5-5-5-5-5-5-5-5-5-5-5-5-5--7-7-7-7-7-7-7-7-7-7-7-7"7-7-7-7--|
E|----------------------------------5-5-5-5-5-5-5-5-5-5-5-5-5-5-5-5--|(x2)


[Verse 2]

e|-----0-------0----------0-------0------------------|
B|---2---2---2---2------2---2---2---2----------------|
G|---------4------------------4----------------------| keep repeating
D|--------------------0------------------------------|
A|-0-------------------------------------------------|
E|---------------------------------------------------|


[Chorus]

e|-0-0-0-0-0-0-0-0-0-0-0-0-0-0-0-0--0-0-0-0-0-0-0-0-0-0-0-0-0-0-0-0--|
B|-0-0-0-0-0-0-0-0-0-0-0-0-0-0-0-0--0-0-0-0-0-0-0-0-0-0-0-0-0-0-0-0--|
G|-7-7-7-7-7-7-7-7-7-7-7-7-7-7-7-7--6-6-6-6-6-6-6-6-6-6-6-6-6-6-6-6--| 
D|-7-7-7-7-7-7-7-7-7-7-7-7-7-7-7-7--7-7-7-7-7-7-7-7-7-7-7-7-7-7-7-7--|
A|-5-5-5-5-5-5-5-5-5-5-5-5-5-5-5-5--7-7-7-7-7-7-7-7-7-7-7-7"7-7-7-7--|
E|----------------------------------5-5-5-5-5-5-5-5-5-5-5-5-5-5-5-5--|(x4)


[Bridge/Outro]

e|-----0----------0----------------------|
B|-----0----------0----------------------|
G|-7-7---7----7-7---7-7------------------|
D|-7-7---7----7-7---7-7------------------|
A|-5-5---5----5-5---5-5------------------|
E|---------------------------------------|

e|-----0-------0-------0-------0------------------|
B|---2---2---2---2---2---2---2---2----------------|
G|-4-------4-------4-------4----------------------| repeat until end
D|------------------------------------------------|
A|------------------------------------------------|
E|------------------------------------------------|
 
 
Moose Blood - Moving Home Tab :: indexed at Ultimate Guitar.
Moving Home tabs @ 911Tabs
People who played Moose Blood - Moving Home Tab also played these songs by Moose Blood:
Bukowski Chords, Gum Tab, Carbis Bay Chords, Glow Tab, Cherry Chords, Boston Chords

Quick tip, so you can enjoy Moving Home Tab even more:

If you don't really know how to deal with "Absus4" chord and his equally confusing brothers, just put the mouse cursor over them and you will be shown a helpful chord diagram.

Show us your talent, perform Moving Home Tab!

Here you can post a video or audio performance. Tell me more ...
Where can we find your performance? Tell me more ...
Your comment:
Please, log in to post your performance.