Artists by letter: A B C D E F G H I J K L M N O P Q R S T U V W X Y Z 0-9

 
Cheek Tab
Hey, this is my first ever tab, I learnt this by ear and I have a cover of it that you can view here!
I messed about in the cover so it's not the exact same as this tab but here's my take on this song!
https://www.youtube.com/watch?v=5ZOW-YGY4JM
Subscribe if you liked it, be sure to let me know that you've used my tab by showing some support in the form
of a like or a comment! Feedback is appreciated, hope you have a nice day! MATES CLUB WORLDWIDE!
E-mail: [email protected]


[Intro]

GUITAR 1

e|-9--9--9--9--9--9--9--9--------2-2-2-2-2-2-2-2------------------------------|
B|-9--9--9--9--9--9--9--9--------2-2-2-2-2-2-2-2------------------------------|
G|-11-11-11-11-11-11-11-11---X4--4-4-4-4-4-4-4-4--X4--------------------------|
D|-11-11-11-11-11-11-11-11-------4-4-4-4-4-4-4-4------------------------------|
A|-9--9--9--9--9--9--9--9--------2-2-2-2-2-2-2-2------------------------------|
E|----------------------------------------------------------------------------|

GUITAR 2

e|------------------7-7-7-6-6-6-6----------------7-7-7-6-6-6-------------------------------|
B|--7-9-9-9-9-9-9-9--------------7-9-9-9-9-9-9-9-------------7-9-9-9-9-9-9-7-7-7-7-7-7-7---|
G|-----------------------------------------------------------------------------------------|
D|-----------------------------------------------------------------------------------------|
A|-----------------------------------------------------------------------------------------|
E|-----------------------------------------------------------------------------------------|

e|---------------------------------------------------------------------------| 
B|-7-9-9-9-9-9-9-7-7-7-6-6-6-6-7---------------------------------------------|
G|---------------------------------------------------------------------------|
D|---------------------------------------------------------------------------|
A|---------------------------------------------------------------------------|
E|---------------------------------------------------------------------------|


[Verse]

GUITAR 1

e|-9--9--9--9--9--9--9--9--------2-2-2-2-2-2-2-2------------------------------|(x3)
B|-9--9--9--9--9--9--9--9--------2-2-2-2-2-2-2-2------------------------------|
G|-11-11-11-11-11-11-11-11---X4--4-4-4-4-4-4-4-4--X4--------------------------|
D|-11-11-11-11-11-11-11-11-------4-4-4-4-4-4-4-4------------------------------|
A|-9--9--9--9--9--9--9--9--------2-2-2-2-2-2-2-2------------------------------|
E|----------------------------------------------------------------------------|

GUITAR 2

e|----9-----9----9-----9------9--------9------9------9------9------9----------|
B|------9-----9-----9-----9-----9--------9------9------9------9------9--------|
G|--11----11----11----11----11-------11-----11-----11-----11-----11-----------| THROUGHOUT THE WHOLE VERSE
D|----------------------------------------------------------------------------|
A|----------------------------------------------------------------------------|
E|----------------------------------------------------------------------------|


[Pre-Chorus]

GUITAR 1

e|-9--9--9--9--9--9--9--9-----------------------2-2-2-2-2-2-2-2-2-2-2-2-2-2-2-2------------|(x2)
B|-9--9--9--9--9--9--9--9-----------------------2-2-2-2-2-2-2-2-2-2-2-2-2-2-2-2------------|
G|-11-11-11-11-11-11-11-11---8-8-8-8--6-6-6-6---4-4-4-4-4-4-4-4-4-4-4-4-4-4-4-4------------|
D|-11-11-11-11-11-11-11-11---8-8-8-8--6-6-6-6---4-4-4-4-4-4-4-4-4-4-4-4-4-4-4-4------------|
A|-9--9--9--9--9--9--9--9----6-6-6-6--4-4-4-4---2-2-2-2-2-2-2-2-2-2-2-2-2-2-2-2------------|
E|-----------------------------------------------------------------------------------------|

GUITAR 2

e|-7-7-7-7---6-6--4-4--2-2-2-2-2-2-2-2---------------------------------------|(x2)
B|--7-7-7-7---7-7--7-7--7-7-7-7-7-7-7-7--------------------------------------|
G|---------------------------------------------------------------------------|
D|---------------------------------------------------------------------------|
A|---------------------------------------------------------------------------|
E|---------------------------------------------------------------------------|


[Chorus]

GUITAR 1

e|-9--------2---------------------2-----------------------------------------------|(x2)
B|-9--------2---------------------2-----------------------------------------------|
G|-11--X16--4--X16--8--X8--6--X8--4--X16------------------------------------------|
D|-11-------4-------8------6------4-----------------------------------------------|
A|-9--------2-------6------4------2-----------------------------------------------|
E|--------------------------------------------------------------------------------|

GUITAR 2

e|--7-----6-----4-----6-----7--------7-----6-----4-----6-----7---------------|(x4)
B|----7-7---7-7---7-7---7-7---7-7-7----7-7---7-7---7-7---7-7---7-7-7---------|
G|---------------------------------------------------------------------------|
D|---------------------------------------------------------------------------|
A|---------------------------------------------------------------------------|
E|---------------------------------------------------------------------------|


[Intro]

(AGAIN LEADING INTO THE SECOND VERSE)

GUITAR 1

e|-9--9--9--9--9--9--9--9--------2-2-2-2-2-2-2-2------------------------------|
B|-9--9--9--9--9--9--9--9--------2-2-2-2-2-2-2-2------------------------------|
G|-11-11-11-11-11-11-11-11---X4--4-4-4-4-4-4-4-4--X4--------------------------|
D|-11-11-11-11-11-11-11-11-------4-4-4-4-4-4-4-4------------------------------|
A|-9--9--9--9--9--9--9--9--------2-2-2-2-2-2-2-2------------------------------|
E|----------------------------------------------------------------------------|

GUITAR 2

e|------------------7-7-7-6-6-6-6----------------7-7-7-6-6-6-------------------------------|
B|--7-9-9-9-9-9-9-9--------------7-9-9-9-9-9-9-9-------------7-9-9-9-9-9-9-7-7-7-7-7-7-7---|
G|-----------------------------------------------------------------------------------------|
D|-----------------------------------------------------------------------------------------|
A|-----------------------------------------------------------------------------------------|
E|-----------------------------------------------------------------------------------------|

e|---------------------------------------------------------------------------| 
B|-7-9-9-9-9-9-9-7-7-7-6-6-6-6-7---------------------------------------------|
G|---------------------------------------------------------------------------|
D|---------------------------------------------------------------------------|
A|---------------------------------------------------------------------------|
E|---------------------------------------------------------------------------|


[Verse 2]

GUITAR 1

e|--9--9--9-----------------------------|
B|--9--9--9-----------------------------|
G|--9--9--9-----------------------------|
D|--11-11-11----------------------------|
A|--9--9--9-----------------------------|
E|--------------------------------------|


GUITAR 2

e|---------------------------------------------------------------------------|
B|---------------------------------------------------------------------------|
G|---------------------------------------------------------------------------|
D|-11---11---11---11---11---11---11---11---11---11---11---11-----------------|THROUGHOUT ENITRE VERSE 2
A|----9----9----9----9----9----9----9----9----9----9----9----9---------------|
E|---------------------------------------------------------------------------|


[Pre-Chorus]

GUITAR 1

e|-9--9--9--9--9--9--9--9-----------------------2-2-2-2-2-2-2-2-2-2-2-2-2-2-2-2------------|(x2)
B|-9--9--9--9--9--9--9--9-----------------------2-2-2-2-2-2-2-2-2-2-2-2-2-2-2-2------------|
G|-11-11-11-11-11-11-11-11---8-8-8-8--6-6-6-6---4-4-4-4-4-4-4-4-4-4-4-4-4-4-4-4------------|
D|-11-11-11-11-11-11-11-11---8-8-8-8--6-6-6-6---4-4-4-4-4-4-4-4-4-4-4-4-4-4-4-4------------|
A|-9--9--9--9--9--9--9--9----6-6-6-6--4-4-4-4---2-2-2-2-2-2-2-2-2-2-2-2-2-2-2-2------------|
E|-----------------------------------------------------------------------------------------|

GUITAR 2

e|-7-7-7-7--6-6--4-4--2-2-2-2-2-2-2-2----------------------------------------|
B|--7-7-7-7--7-7--7-7--7-7-7-7-7-7-7-7---------------------------------------|
G|---------------------------------------------------------------------------|
D|---------------------------------------------------------------------------|
A|---------------------------------------------------------------------------|
E|---------------------------------------------------------------------------|


[Chorus]

GUITAR 1

e|-9--------2---------------------2-----------------------------------------------|(x2)
B|-9--------2---------------------2-----------------------------------------------|
G|-11--X16--4--X16--8--X8--6--X8--4--X16------------------------------------------|
D|-11-------4-------8------6------4-----------------------------------------------|
A|-9--------2-------6------4------2-----------------------------------------------|
E|--------------------------------------------------------------------------------|

GUITAR 2

e|--7-----6-----4-----6-----7--------7-----6-----4-----6-----7---------------|(x4)
B|----7-7---7-7---7-7---7-7---7-7-7----7-7---7-7---7-7---7-7---7-7-7---------|
G|---------------------------------------------------------------------------|
D|---------------------------------------------------------------------------|
A|---------------------------------------------------------------------------|
E|---------------------------------------------------------------------------|


[Middle 8]

e|---------------------------------------------------------------------------|
B|---------------------------------------------------------------------------|
G|-4-4---4-4-4--8-8---8-8-8---6-6---6-6-6---8-8-8--6-6-6---------------------|
D|-4-4---4-4-4--8-8---8-8-8---6-6---6-6-6---8-8-8--6-6-6---------------------|
A|-2-2---2-2-2--6-6---6-6-6---4-4---4-4-4---6-6-6--4-4-4---------------------|
E|---------------------------------------------------------------------------|


[Outro]

GUITAR 1

e|---------------------------------------------------------------------------|(x4)
B|---------------------------------------------------------------------------|
G|-4-4---4-4-4--8-8---8-8-8---6-6---6-6-6---8-8-8--6-6-6---------------------|
D|-4-4---4-4-4--8-8---8-8-8---6-6---6-6-6---8-8-8--6-6-6---------------------|
A|-2-2---2-2-2--6-6---6-6-6---4-4---4-4-4---6-6-6--4-4-4---------------------|
E|---------------------------------------------------------------------------|

e|----------------------------------------------------------------------9-----|
B|----------------------------------------------------------------------9-----|
G|----10-11-------------10-11------------10-11------------10-11---------11----|
D|-11----------------11---------------11---------------11---------------11----|
A|-----------13-11-9----------13-11-9----------13-11-9----------13-11-8-9-----|
E|----------------------------------------------------------------------------|
 
 
Moose Blood - Cheek Tab :: indexed at Ultimate Guitar.
Cheek tabs @ 911Tabs
People who played Moose Blood - Cheek Tab also played these songs by Moose Blood:
Bukowski Chords, Gum Tab, Carbis Bay Chords, Glow Tab, Cherry Chords, Boston Chords

Quick tip, so you can enjoy Cheek Tab even more:

If you don't really know how to deal with "Absus4" chord and his equally confusing brothers, just put the mouse cursor over them and you will be shown a helpful chord diagram.

Show us your talent, perform Cheek Tab!

Here you can post a video or audio performance. Tell me more ...
Where can we find your performance? Tell me more ...
Your comment:
Please, log in to post your performance.