Artists by letter: A B C D E F G H I J K L M N O P Q R S T U V W X Y Z 0-9

 
Up Up Up Tab
This is the [main riff]

e|-----------------------------------------------------------------------|
B|-10----------------------------------------10--------------------------|
G|----11-9-11--------------9-----------9h11-----11-9-11-------------9----|
D|------------11---11-9-11--------9h11------------------11---11-9-11-----|
A|---------------------------12---------------------------------------12-|
E|-----------------------------------------------------------------------|

At about 3:35 this comes in and is played until 4:22

e|-----------------------------------------------------------------------------------------|
B|-10--------------------10--------------------10------------------------------------------|
G|----11-9-------9----------11-9-------9----------11-9-------9----------9----------9-------|
D|---------11-12---11------------11-12---11------------11-12---11----11---12-11-11---12-11-|
A|--------------------12--------------------12--------------------12-----------------------|
E|-----------------------------------------------------------------------------------------|


************************************

| h  Hammer-on

************************************
 
 
Givers - Up Up Up Tab :: indexed at Ultimate Guitar.
Up Up Up tabs @ 911Tabs
People who played Givers - Up Up Up Tab also played these songs by Givers:
I Saw You First Chords, Up Up Up, I Saw You First

Quick tip, so you can enjoy Up Up Up Tab even more:

After the registration (which takes just 10 seconds, remember?) you will be able to use your profile - your very own piece of YourChords.com.

Show us your talent, perform Up Up Up Tab!

Here you can post a video or audio performance. Tell me more ...
Where can we find your performance? Tell me more ...
Your comment:
Please, log in to post your performance.