Artists by letter: A B C D E F G H I J K L M N O P Q R S T U V W X Y Z 0-9

 
Topical Solution Tab
[Intro]

guitar 1:
e|---------------------------------------------------------------------------|
B|---------------------------------------------------------------------------|
G|---------------------------------------------------------------------------|
D|--6----4----6--4---6---6-6-6-6-6-6-6---------------------------------------| 4x
A|---------------------------------------------------------------------------|
E|---------------------------------------------------------------------------|

guitar 2: A 4x


[Verse 1]

guitar 1:
e|---------------------------------------------------------------------------|
B|---------------------------------------------------------------------------|
G|---------------------------------------------------------------------------|
D|--6----4----6--4---6---6-6-6-6-6-6-6---------------------------------------| 4x
A|---------------------------------------------------------------------------|
E|---------------------------------------------------------------------------|

guitar 2: A 4x

The hands had been where were we
To turn it on or turn it
up maybe some
time turn it off

guitar 1:
e|---------------------------------------------------------------------------|
B|---------------------------------------------------------------------------|
G|---------------------------------------------------------------------------|
D|--6----4----6--4---6---6-6-6-6-6-6-6---------------------------------------| 2x
A|---------------------------------------------------------------------------|
E|---------------------------------------------------------------------------|

guitar 2: C# 2x

When it gets too late


[Chorus]

guitar 1:
e|---------------------------------------------------------------------------|
B|---------------------------------------------------------------------------|
G|-----13------------------13--------9---------------------------------------|
D|--11----11-14-11---9--11----11-------11------------------------------------| 8x
A|---------------------------------------------------------------------------|
E|---------------------------------------------------------------------------|

guitar 2: A 8x

And the heat is toxious
The air is on fire
The hands had become
cautious
So rock out, rock out rock out, rock out


[Verse 2]

guitar 1:
e|---------------------------------------------------------------------------|
B|---------------------------------------------------------------------------|
G|---------------------------------------------------------------------------|
D|--6----4----6--4---6---6-6-6-6-6-6-6---------------------------------------| 2x
A|---------------------------------------------------------------------------|
E|---------------------------------------------------------------------------|

guitar 2: C# 2x

guitar 1:
e|---------------------------------------------------------------------------|
B|---------------------------------------------------------------------------|
G|---------------------------------------------------------------------------|
D|--6----4----6--4---6---6-6-6-6-6-6-6---------------------------------------| 1x
A|---------------------------------------------------------------------------|
E|---------------------------------------------------------------------------|

guitar 2: F# 1x


[Bridge]

guitar 1:
e|---------------------------------------------------------------------------|
B|---------------------------------------------------------------------------|
G|-----13------------------13--------9---------------------------------------|
D|--11----11-14-11---9--11----11-------11------------------------------------| 8x
A|---------------------------------------------------------------------------|
E|---------------------------------------------------------------------------|

guitar 2: A 8x

guitar 3:
e|---------------------------------------------------------------------------|
B|---------------------------------------------------------------------------|
G|---------------------------------------------------------------------------|
D|--6----4----6--4---6---6-6-6-6-6-6-6---------------------------------------| 4x
A|---------------------------------------------------------------------------|
E|---------------------------------------------------------------------------|

Bid all the kids
farewell the story
The ship said to me
The magazines

We all turn out
To be crazy
we go out
for the night

guitar 1:
e|---------------------------------------------------------------------------|
B|---------------------------------------------------------------------------|
G|---------------------------------------------------------------------------|
D|--6----4----6--4---6---6-6-6-6-6-6-6---------------------------------------| 2x
A|---------------------------------------------------------------------------|
E|---------------------------------------------------------------------------|

guitar 2: C# 2x

Dogs bark

guitar 1:
e|---------------------------------------------------------------------------|
B|---------------------------------------------------------------------------|
G|---------------------------------------------------------------------------|
D|--6----4----6--4---6---6-6-6-6-6-6-6---------------------------------------| 2x
A|---------------------------------------------------------------------------|
E|---------------------------------------------------------------------------|

guitar 2: A 2x

And the wheels of the wagon


[Chorus]

guitar 1:
e|---------------------------------------------------------------------------|
B|---------------------------------------------------------------------------|
G|-----13------------------13--------9---------------------------------------|
D|--11----11-14-11---9--11----11-------11------------------------------------| 4x
A|---------------------------------------------------------------------------|
E|---------------------------------------------------------------------------|

guitar 2: A 4x

Turn on, and turn out

guitar 1:
e|---------------------------------------------------------------------------|
B|---------------------------------------------------------------------------|
G|---------------------------------------------------------------------------|
D|--6----4----6--4---6---6-6-6-6-6-6-6---------------------------------------| 2x
A|---------------------------------------------------------------------------|
E|---------------------------------------------------------------------------|

guitar 2: C# 2x

guitar 1:
e|---------------------------------------------------------------------------|
B|---------------------------------------------------------------------------|
G|---------------------------------------------------------------------------|
D|--6----4----6--4---6---6-6-6-6-6-6-6---------------------------------------| 1x
A|---------------------------------------------------------------------------|
E|---------------------------------------------------------------------------|

guitar 2: F# 1x

guitar 1:
e|---------------------------------------------------------------------------|
B|---------------------------------------------------------------------------|
G|-----13------------------13--------9---------------------------------------|
D|--11----11-14-11---9--11----11-------11------------------------------------| 5x
A|---------------------------------------------------------------------------|
E|---------------------------------------------------------------------------|

guitar 2: A 5x

guitar 3:
e|---------------------------------------------------------------------------|
B|---------------------------------------------------------------------------|
G|---------------------------------------------------------------------------|
D|--6----4----6--4---6---6-6-6-6-6-6-6---------------------------------------| 5x
A|---------------------------------------------------------------------------|
E|---------------------------------------------------------------------------|

In your hair
I can see the topical solution
And no one will share it with man


[Outro]

e|---------------------------------------------------------------------------|
B|---------------------------------------------------------------------------|
G|-------------------------9-------------------------------------------------|
D|--11---9---11---9---11-----------------------------------------------------|
A|---------------------------------------------------------------------------|
E|---------------------------------------------------------------------------|
 
 
Duster - Topical Solution Tab :: indexed at Ultimate Guitar.
Topical Solution tabs @ 911Tabs
People who played Duster - Topical Solution Tab also played these songs by Duster:
Echo Bravo Tab, The Breakup Suite Tab, Shadows Of Planes Tab, Constellations Tab, Queen Of Hearts Tab, Gold Dust Tab

Quick tip, so you can enjoy Topical Solution Tab even more:

If you don't really know how to deal with "Absus4" chord and his equally confusing brothers, just put the mouse cursor over them and you will be shown a helpful chord diagram.

Show us your talent, perform Topical Solution Tab!

Here you can post a video or audio performance. Tell me more ...
Where can we find your performance? Tell me more ...
Your comment:
Please, log in to post your performance.