Artists by letter: A B C D E F G H I J K L M N O P Q R S T U V W X Y Z 0-9

 
Shadows Of Planes Tab
 Chords: D  G  A   (Shapes in standard would be E, A, B)
         0  0  2
         0  2  4
         1  2  4
         2  2  4
         2  0  2
         0  X  X

[Verse] (0:00-1:13)

D
  Shadows of planes, flying overhead

            G A

D
  Overhead projection

            G A

D
  Night crawlers in the sky

            G


[Bridge] (1:13- 1:20)

D|--------------0--PM-0-PM-0---------|
A|---------0-1--1--PM-1-PM-1---------|
F|-------1------0--PM-0-PM-0---------|
C|-----2--------0--PM------0---------|
G|-2h4-------------------------------|
D|-----------------------------------|


[Outro] (1:24-1:27, listen for strumming pattern) 

D|--2----0-2--------|
A|--4----4-4--------|
F|--4----4-4--------|
C|--4----4-4--------|
G|--2----0-2--------|
D|------------------|

(1:28- End)

D|-0-----------0----------0----------0------------------|
A|-0--4 bars---2--2 bars--0--2 bars--0--single strum----|
F|-1-----------1----------1----------1------------------|
C|-2-----------2----------2----------2------------------|
G|-2-----------2----------2----------2------------------|
D|-0-----------0----------0----------0------------------|



************************************

| h   Hammer-on
| PM  Palm mute

************************************
 
 
Duster - Shadows Of Planes Tab :: indexed at Ultimate Guitar.
Shadows Of Planes tabs @ 911Tabs
People who played Duster - Shadows Of Planes Tab also played these songs by Duster:
Echo Bravo Tab, The Breakup Suite Tab, Constellations Tab, Queen Of Hearts Tab, Gold Dust Tab, Inside Out Tab

Quick tip, so you can enjoy Shadows Of Planes Tab even more:

Try out the AutoScroller option ... It scrolls the page for you, so you can totally focus on nailing that solo. You can choose among different speeds using your mouse or your keyboard (keys 0, 1, 2 and 3).

Show us your talent, perform Shadows Of Planes Tab!

Here you can post a video or audio performance. Tell me more ...
Where can we find your performance? Tell me more ...
Your comment:
Please, log in to post your performance.