Artists by letter: A B C D E F G H I J K L M N O P Q R S T U V W X Y Z 0-9

 
The One Who Laughs Last Tab
-------------------------------------------------------------------------------------------
                        The One Who Laughs Last - Downplay
-------------------------------------------------------------------------------------------
Tabbed by: Bart Baart
Tuning: Drop A#/Bb


[Intro/Verse One] (clean)

C |---------------|----------------|
G |---------------|----------------|
D#|---------------|----------------|
A#|-----4------4--|-----4---4---4--|
F |---------------|-------4--------|
A#|-4-4----4-4----|-4-4-------4----| REPEAT 12X

C |-----------|----------|----------|---------|
G |-----------|----------|----------|---------|
D#|-11--------|-9--------|-7--------|---------|
A#|-----------|----------|----------|---------|
F |-----------|----------|----------|---------|
A#|-----------|----------|----------|---------|

C |-----------|----------|----------|-----------|
G |-----------|----------|----------|-----------|
D#|-11--------|-9--------|-7--------|-14--------|
A#|-----------|----------|----------|-----------|
F |-----------|----------|----------|-----------|
A#|-----------|----------|----------|-----------|


[Verse Two]

C |---------------|---------------|---------------|---------------|
G |---------------|---------------|---------------|---------------|
D#|---------------|---------------|---------------|---------------|
A#|-4-4--4-4-4--4-|-7-7--7-7-7--7-|-0-0--0-0-0--0-|-9-9--9-2-2--2-|
F |-4-4--4-4-4--4-|-7-7--7-7-7--7-|-0-0--0-0-0--0-|-9-9--9-2-2--2-|
A#|-4-4--4-4-4--4-|-7-7--7-7-7--7-|-0-0--0-0-0--0-|-9-9--9-2-2--2-| REPEAT 2X


[Chorus]

C |---------------|---------------|---------------|---------------|
G |---------------|---------------|---------------|---------------|
D#|---------------|---------------|---------------|---------------|
A#|-4-4--7-4-4--2-|-4-4--7-4-4--2-|-0-0--0-0-0--0-|-9-9--9-2-2--2-|
F |-4-4--7-4-4--2-|-4-4--7-4-4--2-|-0-0--0-0-0--0-|-9-9--9-2-2--2-|
A#|-4-4--7-4-4--2-|-4-4--7-4-4--2-|-0-0--0-0-0--0-|-9-9--9-2-2--2-| REPEAT 2X


{Verse One]


C |---------------|----------------|
G |---------------|----------------|
D#|---------------|----------------|
A#|-----4------4--|-----4---4---4--|
F |---------------|-------4--------|
A#|-4-4----4-4----|-4-4-------4----| REPEAT 12X

C |-----------|----------|----------|---------|
G |-----------|----------|----------|---------|
D#|-11--------|-9--------|-7--------|---------|
A#|-----------|----------|----------|---------|
F |-----------|----------|----------|---------|
A#|-----------|----------|----------|---------|

C |-----------|----------|----------|-----------|
G |-----------|----------|----------|-----------|
D#|-11--------|-9--------|-7--------|-14--------|
A#|-----------|----------|----------|-----------|
F |-----------|----------|----------|-----------|
A#|-----------|----------|----------|-----------|


[Verse Two]

C |---------------|---------------|---------------|---------------|
G |---------------|---------------|---------------|---------------|
D#|---------------|---------------|---------------|---------------|
A#|-4-4--4-4-4--4-|-7-7--7-7-7--7-|-0-0--0-0-0--0-|-9-9--9-2-2--2-|
F |-4-4--4-4-4--4-|-7-7--7-7-7--7-|-0-0--0-0-0--0-|-9-9--9-2-2--2-|
A#|-4-4--4-4-4--4-|-7-7--7-7-7--7-|-0-0--0-0-0--0-|-9-9--9-2-2--2-| REPEAT 2X


[Pre-Chorus]

C |---------------------|---------------|
G |---------------------|---------------|
D#|---------------------|---------------|
A#|-12-12--12-12-12--12-|-9-9--9-9-9--9-|
F |-12-12--12-12-12--12-|-9-9--9-9-9--9-|
A#|-12-12--12-12-12--12-|-9-9--9-9-9--9-|


[Chorus]

C |---------------|---------------|---------------|---------------|
G |---------------|---------------|---------------|---------------|
D#|---------------|---------------|---------------|---------------|
A#|-4-4--7-4-4--2-|-4-4--7-4-4--2-|-0-0--0-0-0--0-|-9-9--9-2-2--2-|
F |-4-4--7-4-4--2-|-4-4--7-4-4--2-|-0-0--0-0-0--0-|-9-9--9-2-2--2-|
A#|-4-4--7-4-4--2-|-4-4--7-4-4--2-|-0-0--0-0-0--0-|-9-9--9-2-2--2-| REPEAT 2X


{Verse One]

C |---------------|----------------|
G |---------------|----------------|
D#|---------------|----------------|
A#|-----4------4--|-----4---4---4--|
F |---------------|-------4--------|
A#|-4-4----4-4----|-4-4-------4----|

C |---------------|----------|
G |---------------|----------|
D#|---------------|----------|
A#|-----4------4--|----------|
F |---------------|----------|
A#|-4-4----4-4----|-4--------|


[Verse Two] (repeat 4X)

C |---------------|---------------|---------------|---------------|
G |---------------|---------------|---------------|---------------|
D#|---------------|---------------|---------------|---------------|
A#|-4-4--4-4-4--4-|-7-7--7-7-7--7-|-0-0--0-0-0--0-|-9-9--9-2-2--2-|
F |-4-4--4-4-4--4-|-7-7--7-7-7--7-|-0-0--0-0-0--0-|-9-9--9-2-2--2-|
A#|-4-4--4-4-4--4-|-7-7--7-7-7--7-|-0-0--0-0-0--0-|-9-9--9-2-2--2-| REPEAT 2X


[Chorus] (repeat 4X)

 |---------------|---------------|---------------|---------------|
G |---------------|---------------|---------------|---------------|
D#|---------------|---------------|---------------|---------------|
A#|-4-4--7-4-4--2-|-4-4--7-4-4--2-|-0-0--0-0-0--0-|-9-9--9-2-2--2-|
F |-4-4--7-4-4--2-|-4-4--7-4-4--2-|-0-0--0-0-0--0-|-9-9--9-2-2--2-|
A#|-4-4--7-4-4--2-|-4-4--7-4-4--2-|-0-0--0-0-0--0-|-9-9--9-2-2--2-| REPEAT 2X


[Outro]

C |---------------------|
G |---------------------|
D#|---------------------|
A#|-4-------------------|
F |-4-------------------|
A#|-4-------------------|
 
 
Downplay - The One Who Laughs Last Tab :: indexed at Ultimate Guitar.
The One Who Laughs Last tabs @ 911Tabs
People who played Downplay - The One Who Laughs Last Tab also played these songs by Downplay:
Hated You From Hello Chords, Sleep Tab, Tomorrow Chords, Where Did You Go Tab, Digging It Out Tab, Tomorrow

Quick tip, so you can enjoy The One Who Laughs Last Tab even more:

You might want to transpose the song if it is too high or too low for you to sing. Just click the desired option while playing a song and all the chords will automatically be transponded into a new key.

Show us your talent, perform The One Who Laughs Last Tab!

Here you can post a video or audio performance. Tell me more ...
Where can we find your performance? Tell me more ...
Your comment:
Please, log in to post your performance.