Artists by letter: A B C D E F G H I J K L M N O P Q R S T U V W X Y Z 0-9

 
Harder To Lie Tab
[Intro]

E|---------------------------------------------------------
B|-------1-------------0-0---0-------1-----------0-0---0-0-
G|-------2---------0---0-0---0-------2-----------0-0---0-0-
D|-0-2---2-----0h2-----0-0---0-0-2---2-----2p0---0-0---0-0-
A|-----0---2-3---------2-2---2-----0---2-3-------2-2---2-2-
E|-------------------3-----3-------------------3-----3-----


[Verse]

     G      Am
The first impression
             F           C
Is what I've always been best at
          Am
You never questioned
F          C
Me or my intentions
F               C
I could be your best friend
     G
The minute you shake my hand
                 Am
When it comes to winning
F               C
These could be deadly
                 Am
When it comes to loving me
F           C
You best be ready
       F             C
'Cause this will get heavy
         G
When you learn just what I am


[Chorus]

          F
I fed you fables and fooled you
     Am
With words from my tongue
F                                G
Trying to make you think I was a better man than I was
              C         F
But if you're asking me now
     Am             F
I'll tell you the truth
             C C/B      C/A G     F      C
It's getting harder and harder to lie to you

E|---------------------------------------------------------
B|-------1-------------0-0---0-------1-----------0-0---0-0-
G|-------2---------0---0-0---0-------2-----------0-0---0-0-
D|-0-2---2-----0h2-----0-0---0-0-2---2-----2p0---0-0---0-0-
A|-----0---2-3---------2-2---2-----0---2-3-------2-2---2-2-
E|-------------------3-----3-------------------3-----3-----


[Verse 2]

            Am
How did you get here
    F           C
Did You seek me out?
            Am
Were you an answered prayer
    F             C
For me to shut my mouth?
   F             C
So I would learn how
   G
To open up my heart
                Am             F             C
'Cause I never stuttered and I never thought twice
        Am                          F           C
I never folded or shook, the moment always felt right
   F         C        G
To do what I like and live in the dark


[Chorus]

          F
I fed you fables and fooled you
     Am
With words from my tongue
F                                G
Trying to make you think I was a better man than I was
              C         F
But if you're asking me now
     Am             F
I'll tell you the truth
             C C/B      C/A G     F      C
It's getting harder and harder to lie to you 2X

[Second time ending)
             C C/B     F
It's getting harder to lie
             C C/B     F
It's getting harder to lie
             C C/B     F      C
It's getting harder to lie to you



************************************

| h  Hammer-on
| p  Pull-off

************************************
 
 
David Ramirez - Harder To Lie Tab :: indexed at Ultimate Guitar.
Harder To Lie tabs @ 911Tabs

Quick tip, so you can enjoy Harder To Lie Tab even more:

Try out the AutoScroller option ... It scrolls the page for you, so you can totally focus on nailing that solo. You can choose among different speeds using your mouse or your keyboard (keys 0, 1, 2 and 3).

Show us your talent, perform Harder To Lie Tab!

Here you can post a video or audio performance. Tell me more ...
Where can we find your performance? Tell me more ...
Your comment:
Please, log in to post your performance.