Artists by letter: A B C D E F G H I J K L M N O P Q R S T U V W X Y Z 0-9

 
For Evigt Tab
[Intro]

e|---------------------------------------------------------------------------|
B|---------------------------------------------------------------------------|
G|---------------------------------------------------------------------------|
D|-7-7-7-7-7-7-7--2-2-2-2-2-2-2-2--4-4-4-4-4-4-4-4-4-4-4-4-4-4-4-4-----------|
A|-5-5-5-5-5-5-5--0-0-0-0-0-0-0-0--2-2-2-2-2-2-2-2-2-2-2-2-2-2-2-2-----------|
E|---------------------------------------------------------------------------|

e|---------------------------------------------------------------------------|
B|---------------------------------------------------------------------------|
G|---------------------------------------------------------------------------| X2
D|---------------------------------------------------------------------------|
A|-5-5-5-5-5-5-5-5-5-5-5-5-5-5-5-5--7-7-7-7-7-7-7-7-7-7-7-7-7-7-7-7----------|
E|-3-3-3-3-3-3-3-3-3-3-3-3-3-3-3-3--5-5-5-5-5-5-5-5-5-5-5-5-5-5-5-5----------|

Then:
e|---------------------------------------------------------------------------|
B|---------------------------------------------------------------------------|
G|---------------------------------------------------------------------------|
D|-7-7-7-7-7-7-7-7-7-7-7-7-7-7-7-7-7-7-7-7-7-7-7-7---------------------------|
A|-5-5-5-5-5-5-5-5-5-5-5-5-5-5-5-5-5-5-5-5-5-5-5-5--7-7-7-7-7-7-7-7----------|
E|--------------------------------------------------5-5-5-5-5-5-5-5----------|


[Verse 1]

e|---------------------------------------------------------------------------|
B|---------------------------------------------------------------------------|
G|---------------------------------------------------------------------------|
D|-7-7-7-7-7-7-7--2-2-2-2-2-2-2-2--4-4-4-4-4-4-4-4-4-4-4-4-4-4-4-4-----------|
A|-5-5-5-5-5-5-5--0-0-0-0-0-0-0-0--2-2-2-2-2-2-2-2-2-2-2-2-2-2-2-2-----------|
E|---------------------------------------------------------------------------|

e|---------------------------------------------------------------------------|
B|---------------------------------------------------------------------------|
G|---------------------------------------------------------------------------|
D|---------------------------------------------------------------------------|X2
A|-5-5-5-5-5-5-5-5-5-5-5-5-5-5-5-5--7-7-7-7-7-7-7-7-7-7-7-7-7-7-7-7----------|
E|-3-3-3-3-3-3-3-3-3-3-3-3-3-3-3-3--5-5-5-5-5-5-5-5-5-5-5-5-5-5-5-5----------|

Guitar 1 fill:
e|------------------|
B|-5-7-8-7-5--------|
G|-----------7-7-6--|
D|------------------|
A|------------------|
E|------------------|

Guitar 2 fill:
e|---------------------------------------------------------------------------|
B|---------------------------------------------------------------------------|
G|---------------------------------------------------------------------------|
D|-2 let ring----------------------------------------------------------------|
A|-2-let ring-----7-7-7-7-7-7-7-7--BREAK-------------------------------------|
E|-0-let ring-----5-5-5-5-5-5-5-5--BREAK-------------------------------------|


[Chorus 1]

e|---------------------------------------------------------------------------|
B|---------------------------------------------------------------------------|
G|---------------------------------------------------------------------------|
D|------------------7-7-7-7--4-4-4-4---------------------7-7-7-7-6-7-7-7-----|
A|-5-5-5-5-5-5-5-5--5-5-5-5--2-2-2-2--5-5-5-5-5-5-5-5-5--5-5-5-5-4-5-5-5-----|
E|-3-3-3-3-3-3-3-3--------------------3-3-3-3-3-3-3-3-3----------------------|

e|---------------------------------------------------------------------------|
B|---------------------------------------------------------------------------|
G|---------------------------------------------------------------------------|
D|-----------------------------------7-7-7-7-7-7-7-7-------------------------|
A|-5-5-5-5-5-5-5-5--7-7-7-7-7-7-7-7--5-5-5-5-5-5-5-5--5-5-5-5-5-5-5-5--------|
E|-3-3-3-3-3-3-3-3--5-5-5-5-5-5-5-5-------------------3-3-3-3-3-3-3-3--------|

e|---------------------------------------------------------------------------|
B|---------------------------------------------------------------------------|
G|---------------------------------------------------------------------------|
D|-----------------------------------7-7-7-7-7-7-7-7-------------------------|
A|-5-5-5-5-5-5-5-5--7-7-7-7-7-7-7-7--5-5-5-5-5-5-5-5-------7-7-7-7-7-7-7-7---|
E|-3-3-3-3-3-3-3-3--5-5-5-5-5-5-5-5------------------------5-5-5-5-5-5-5-5---|


[Verse 2]

e|---------------------------------------------------------------------------|
B|---------------------------------------------------------------------------|
G|---------------------------------------------------------------------------|
D|-7-7-7-7-7-7-7--2-2-2-2-2-2-2-2--4-4-4-4-4-4-4-4-4-4-4-4-4-4-4-4-----------|
A|-5-5-5-5-5-5-5--0-0-0-0-0-0-0-0--2-2-2-2-2-2-2-2-2-2-2-2-2-2-2-2-----------|
E|---------------------------------------------------------------------------|

e|---------------------------------------------------------------------------|
B|---------------------------------------------------------------------------|
G|---------------------------------------------------------------------------|
D|---------------------------------------------------------------------------| X2
A|-5-5-5-5-5-5-5-5-5-5-5-5-5-5-5-5--7-7-7-7-7-7-7-7-7-7-7-7-7-7-7-7----------|
E|-3-3-3-3-3-3-3-3-3-3-3-3-3-3-3-3--5-5-5-5-5-5-5-5-5-5-5-5-5-5-5-5----------|

Guitar 1 fill:
e|------------------|
B|-5-7-8-7-5--------|
G|-----------7-7-6--|
D|------------------|
A|------------------|
E|------------------|

Guitar 2 fill:
e|---------------------------------------------------------------------------|
B|---------------------------------------------------------------------------|
G|---------------------------------------------------------------------------|
D|-2 let ring----------------------------------------------------------------|
A|-2-let ring-----7-7-7-7-7-7-7-7--BREAK-------------------------------------|
E|-0-let ring-----5-5-5-5-5-5-5-5--BREAK-------------------------------------|


[Chorus 2]

e|---------------------------------------------------------------------------|
B|---------------------------------------------------------------------------|
G|---------------------------------------------------------------------------|
D|------------------7-7-7-7--4-4-4-4---------------------7-7-7-7-6-7-7-7-----|
A|-5-5-5-5-5-5-5-5--5-5-5-5--2-2-2-2--5-5-5-5-5-5-5-5-5--5-5-5-5-4-5-5-5-----|
E|-3-3-3-3-3-3-3-3--------------------3-3-3-3-3-3-3-3-3----------------------|

e|---------------------------------------------------------------------------|
B|---------------------------------------------------------------------------|
G|---------------------------------------------------------------------------|
D|-----------------------------------7-7-7-7-7-7-7-7-------------------------|
A|-5-5-5-5-5-5-5-5--7-7-7-7-7-7-7-7--5-5-5-5-5-5-5-5--5-5-5-5-5-5-5-5--------|
E|-3-3-3-3-3-3-3-3--5-5-5-5-5-5-5-5-------------------3-3-3-3-3-3-3-3--------|

e|---------------------------------------------------------------------------|
B|---------------------------------------------------------------------------|
G|---------------------------------------------------------------------------|
D|-----------------------------------7-7-7-7-7-7-7-7-------------------------|
A|-5-5-5-5-5-5-5-5--7-7-7-7-7-7-7-7--5-5-5-5-5-5-5-5-------7-7-7-7-7-7-7-7---|
E|-3-3-3-3-3-3-3-3--5-5-5-5-5-5-5-5------------------------5-5-5-5-5-5-5-5---|


[Instrumental]

e|-5-5-5-5-5-5-5-5-5--3-3-3-3-3-3-3-3-3---|
B|-7-7-7-7-7-7-7-7-7--3-3-3-3-3-3-3-3-3---|
G|-7-7-7-7-7-7-7-7-7--4-4-4-4-4-4-4-4-4---|
D|-7-7-7-7-7-7-7-7-7--5-5-5-5-5-5-5-5-5---|X2
A|-5-5-5-5-5-5-5-5-5--5-5-5-5-5-5-5-5-5---|
E|-5-5-5-5-5-5-5-5-5--3-3-3-3-3-3-3-3-3---|

e|-5-5-5-5-5-5-5-5-5-5-5-5-5-5--5-5-5-5-5-5-5-5-5-5--3-3-3-3-3-3-3-3-3-3-----|
B|-5-5-5-5-5-5-5-5-5-5-5-5-5-5--7-7-7-7-7-7-7-7-7-7--3-3-3-3-3-3-3-3-3-3-----|
G|-6-6-6-6-6-6-6-6-6-6-6-6-6-6--7-7-7-7-7-7-7-7-7-7--4-4-4-4-4-4-4-4-4-4-----|
D|-7-7-7-7-7-7-7-7-7-7-7-7-7-7--7-7-7-7-7-7-7-7-7-7--5-5-5-5-5-5-5-5-5-5-----|
A|-7-7-7-7-7-7-7-7-7-7-7-7-7-7--5-5-5-5-5-5-5-5-5-5--5-5-5-5-5-5-5-5-5-5-----|
E|-5-5-5-5-5-5-5-5-5-5-5-5-5-5--5-5-5-5-5-5-5-5-5-5--3-3-3-3-3-3-3-3-3-3-----|

e|-5-5-5-5-5-5-5-5-5-5-5-5-5--let ring------|
B|-5-5-5-5-5-5-5-5-5-5-5-5-5--let ring------|
G|-6-6-6-6-6-6-6-6-6-6-6-6-6--let ring------|
D|-7-7-7-7-7-7-7-7-7-7-7-7-7--let ring------|
A|-7-7-7-7-7-7-7-7-7-7-7-7-7--let ring------|
E|-5-5-5-5-5-5-5-5-5-5-5-5-5--let ring------|


[Chorus 3]

e|---------------------------------------------------------------------------|
B|---------------------------------------------------------------------------|
G|---------------------------------------------------------------------------|
D|------------------7-7-7-7--4-4-4-4---------------------7-7-7-7-6-7-7-7-----|
A|-5-5-5-5-5-5-5-5--5-5-5-5--2-2-2-2--5-5-5-5-5-5-5-5-5--5-5-5-5-4-5-5-5-----|
E|-3-3-3-3-3-3-3-3--------------------3-3-3-3-3-3-3-3-3----------------------|

e|---------------------------------------------------------------------------|
B|---------------------------------------------------------------------------|
G|---------------------------------------------------------------------------|
D|-----------------------------------7-7-7-7-7-7-7-7-------------------------|
A|-5-5-5-5-5-5-5-5--7-7-7-7-7-7-7-7--5-5-5-5-5-5-5-5--5-5-5-5-5-5-5-5--------|
E|-3-3-3-3-3-3-3-3--5-5-5-5-5-5-5-5-------------------3-3-3-3-3-3-3-3--------|

e|---------------------------------------------------------------------------|
B|---------------------------------------------------------------------------|
G|---------------------------------------------------------------------------|
D|---------------------------------------------------------------------------|
A|-5-5-5-5-5-5-5-5--7-7-7-7-7-7-7-7-BREAK------------------------------------|
E|-3-3-3-3-3-3-3-3--5-5-5-5-5-5-5-5-BREAK------------------------------------|

e|---------------------------------------------------------------------------|
B|---------------------------------------------------------------------------|
G|---------------------------------------------------------------------------|
D|------------------7-7-7-7--4-4-4-4---------------------7-7-7-7-6-7-7-7-----|
A|-5-5-5-5-5-5-5-5--5-5-5-5--2-2-2-2--5-5-5-5-5-5-5-5-5--5-5-5-5-4-5-5-5-----|
E|-3-3-3-3-3-3-3-3--------------------3-3-3-3-3-3-3-3-3----------------------|

e|---------------------------------------------------------------------------|
B|---------------------------------------------------------------------------|
G|---------------------------------------------------------------------------|
D|-----------------------------------7-7-7-7-7-7-7-7-------------------------|
A|-5-5-5-5-5-5-5-5--7-7-7-7-7-7-7-7--5-5-5-5-5-5-5-5--5-5-5-5-5-5-5-5--------|
E|-3-3-3-3-3-3-3-3--5-5-5-5-5-5-5-5-------------------3-3-3-3-3-3-3-3--------|

e|---------------------------------------------------------------------------|
B|---------------------------------------------------------------------------|
G|---------------------------------------------------------------------------|
D|-----------------------------------7-7-7-7-7-7-7-7-------------------------|
A|-5-5-5-5-5-5-5-5--7-7-7-7-7-7-7-7--5-5-5-5-5-5-5-5-------------------------|
E|-3-3-3-3-3-3-3-3--5-5-5-5-5-5-5-5------------------------------------------|


[Outro]

e|---------------------------------------------------------------------------|
B|---------------------------------------------------------------------------|
G|---------------------------------------------------------------------------|
D|-----------------------------------7-7-7-7-7-7-7-7-------------------------|
A|-5-5-5-5-5-5-5-5--7-7-7-7-7-7-7-7--5-5-5-5-5-5-5-5-------------------------|
E|-3-3-3-3-3-3-3-3--5-5-5-5-5-5-5-5------------------------------------------|

e|---------------------------------------------------------------------------|
B|---------------------------------------------------------------------------|
G|---------------------------------------------------------------------------|
D|-----------------------------------7-let ring------------------------------|
A|-5-5-5-5-5-5-5-5--7-7-7-7-7-7-7-7--5-let ring------------------------------|
E|-3-3-3-3-3-3-3-3--5-5-5-5-5-5-5-5------------------------------------------|



 
 
 
Volbeat - For Evigt Tab :: indexed at Ultimate Guitar.
For Evigt tabs @ 911Tabs

Quick tip, so you can enjoy For Evigt Tab even more:

If you don't really know how to deal with "Absus4" chord and his equally confusing brothers, just put the mouse cursor over them and you will be shown a helpful chord diagram.

Show us your talent, perform For Evigt Tab!

Here you can post a video or audio performance. Tell me more ...
Where can we find your performance? Tell me more ...
Your comment:
Please, log in to post your performance.