Artists by letter: A B C D E F G H I J K L M N O P Q R S T U V W X Y Z 0-9

 
Cousins Tab
Song: Cousins
Artist: Vampire Weekend
Album: Contra

Tuning: Standard  No Capo  Electric Clean  2 Guitars

[Intro]

e|--------------------------0-0-0-0-0--------------------------------|
B|------------5.------------5-5-5-5-5------------5.------------4-----|
G|-----1---3--3.-----1---3--3-3-3-3-3-----1---3--3.-----1---3--4-----|
D|---2---4----4.---2---4----4-4-4-4-4---2---4----4.---2---4----4-----| 
A|-------------------------------------------------------------------|
E|-------------------------------------------------------------------|


[Drums]

e|--------------------------0-0-0-0-0--------------------------------|
B|------------5.------------5-5-5-5-5------------5.------------4-----|
G|-----1---3--3.-----1---3--3-3-3-3-3-----1---3--3.-----1---3--4-----|
D|---2---4----4.---2---4----4-4-4-4-4---2---4----4.---2---4----4-----| 
A|-------------------------------------------------------------------|
E|-------------------------------------------------------------------|


[Chanting]

e|----------------------------0-0-0-0-0-------------------------------------|
B|------------5.--------------5-5-5-5-5--------------5.--------------4------|
G|-----1---3--3.---3---1---3--3-3-3-3-3---3---1---3--3.---3---1---3--4------|
D|---2---4----4.-----2---4----4-4-4-4-4-----2---4----4.-----2---4----4------| x2
A|--------------------------------------------------------------------------|
E|--------------------------------------------------------------------------|


[Verse]

N.C.
You found a sweater on the ocean floor
They're gonna find it if you didn't close the door.
You and the smart ones sit outside of their sight
In a house on a street they wouldn't park on at night.

N.C.
Dad was a risk taker.
His was a shoe maker.
You greatest hits 2006, Little list maker.
Heard codes in the melody, You heeded the call.
You were born with ten fingers and you're gonna use them all.


[Refrain]

Tremolo Picked
e|---12--11--9--7--6--7--6--4--2--4--2--0--------------------------|
B|-----------------------------------------4-5-4-5-4-5-4-2-0-------|
G|-----------------------------------------------------------------|
D|-----------------------------------------------------------------| x2
A|-----------------------------------------------------------------|
E|-----------------------------------------------------------------|


[Verse 2]

N.C.
Interesting colors I discovered myself
If your art life is gritty,
You'll be toasting my health
If an interest in culture,
Should be lining the walls.
When your birth right is interest
You could just accrue it all.


[Chorus]

e|----------------------------------------------------------------------------------|
B|----------------------------------------------5---------------------4-------------|
G|---9---------------------9--------------------3---------------------4-------------|
D|---9---------------------9--------------------4---------------------4-------------|
A|---7---------------------7------------------------------------------2-------------|
E|----------------------------------------------------------------------------------|
     Me and my cousins and you and your cousins   It's a line that is always running.

e|-----------------------------------------------------------------------------------|
B|-----------------------------------------------5---------------------4-------------|
G|---9---------------------9---------------------3---------------------4-------------|
D|---9---------------------9---------------------4---------------------4-------------|
A|---7---------------------7-------------------------------------------2-------------|
E|-----------------------------------------------------------------------------------|
     Me and my cousins,    You and your cousins,    I  can  feel  it   coming
          
e|-----------------------------------------------------------------||
B|------------5.------------5------------5.------------4-----------||
G|-----1---3--3.-----1---3--3-----1---3--3.-----1---3--4-----------||
D|---2---4----4.---2---4----4---2---4----4.---2---4----4-----------||
A|-----------------------------------------------------------------||
E|-----------------------------------------------------------------||
                                                                    |
Tremolo Picked  Played on a second guitar                           | x2
e|------------12////////2---12///////2---12////////2---------------||
B|-----------------------------------------------------------------||
G|-----------------------------------------------------------------||
D|-----------------------------------------------------------------|| 
A|-----------------------------------------------------------------||
E|-----------------------------------------------------------------||


[Verse 3]

Tremolo Pick
e|--------|
B|---16---|
G|--------|
D|--------|
A|--------|
E|--------|

N.C.
You could turn your back on the bitter world 
You could turn your back on the bitter world
You could turn your back on the bitter world
You could turn your back on the bitter world


[Chorus]

e|----------------------------------------------------------------------------------|
B|----------------------------------------------5---------------------4-------------|
G|---9---------------------9--------------------3---------------------4-------------|
D|---9---------------------9--------------------4---------------------4-------------|
A|---7---------------------7------------------------------------------2-------------|
E|----------------------------------------------------------------------------------|
     Me and my cousins and you and your cousins   It's a line that is always running.

e|-----------------------------------------------------------------------------------|
B|-----------------------------------------------5---------------------4-------------|
G|---9---------------------9---------------------3---------------------4-------------|
D|---9---------------------9---------------------4---------------------4-------------|
A|---7---------------------7-------------------------------------------2-------------|
E|-----------------------------------------------------------------------------------|
     Me and my cousins,    You and your cousins,    I  can  feel  it   coming

e|----------------------------------------------------------------------------------|
B|----------------------------------------------5---------------------4-------------|
G|---9---------------------9--------------------3---------------------4-------------|
D|---9---------------------9--------------------4---------------------4-------------|
A|---7---------------------7------------------------------------------2-------------|
E|----------------------------------------------------------------------------------|
     Me and my cousins and you and your cousins   It's a line that is always running.

e|-----------------------------------------------------------------------------------|
B|-----------------------------------------------5---------------------4-------------|
G|---9---------------------9---------------------3---------------------4-------------|
D|---9---------------------9---------------------4---------------------4-------------|
A|---7---------------------7-------------------------------------------2-------------|
E|-----------------------------------------------------------------------------------|
     Me and my cousins,    You and your cousins,    I  can  feel  it   coming


[Refrain]

Tremolo Picked
e|---12--11--9--7--6--7--6--4--2--4--2--0--------------------------|
B|-----------------------------------------4-5-4-5-4-5-4-2-0-------|
G|-----------------------------------------------------------------|
D|-----------------------------------------------------------------| 
A|-----------------------------------------------------------------|
E|-----------------------------------------------------------------|


e||---12--11--9--7--6--7--6--4--2--4--2--0--------------------------|
B||-----------------------------------------4-5-4-5-4-5-4-2-0-------|
G||-----------------------------------------------------------------|
D||-----------------------------------------------------------------| 
A||-----------------------------------------------------------------|
E||-----------------------------------------------------------------|
 ||
 || Tremolo picked
e||---9--12--11--9----|
B||-------------------|
G||-------------------| Repeated Many times with line above on a second guitar
D||-------------------|
A||-------------------|
E||-------------------|


[Outro/Bells]

e|------7--9-----11--7--9--------7--9--------4--6-------|
B|------------------------------------------------------|
G|---8--------8------------8--6--------6--4--------4----|
D|------------------------------------------------------|
A|------------------------------------------------------|
E|------------------------------------------------------|

e|------7--9-----11--7--9--------7--9--------4--6------------|
B|-----------------------------------------------------4.----|
G|---8--------8------------8--6--------6--4--------4---4.----|
D|-----------------------------------------------------4.----|
A|-----------------------------------------------------2.----|
E|-----------------------------------------------------------|

************************************

| .  Staccato 
| /  Slide up

************************************ 
 
 
Vampire Weekend - Cousins Tab :: indexed at Ultimate Guitar.
Cousins tabs @ 911Tabs

About the artist behind Cousins Tab:

Vampire Weekend is an indie rock band from New York City, formed in 2006 and signed to XL Recordings.

Indexed at Wikipedia.

Show us your talent, perform Cousins Tab!

Here you can post a video or audio performance. Tell me more ...
Where can we find your performance? Tell me more ...
Your comment:
Please, log in to post your performance.