Artists by letter: A B C D E F G H I J K L M N O P Q R S T U V W X Y Z 0-9

 
Evening Tab
[Chords]

  Dm7              C7               Bb7           A7          A7addG           D9          C9 

e|---5----|    e|---3----|    e|---1----|    e|---0----|    e|---3----|    e|---5---|    e|---3----|
B|---6----|    B|---5----|    B|---3----|    B|---2----|    B|---2----|    B|---5---|    B|---3----|
G|---5----|    G|---3----|    G|---1----|    G|---0----|    G|---0----|    G|---5---|    G|---3----|
D|---7----|    D|---5----|    D|---3----|    D|---2----|    D|---2----|    D|---4---|    D|---2----|
A|---5----|    A|---3----|    A|---1----|    A|---0----|    A|---0----|    A|---5---|    A|---3----|
E|---X----|    E|---X----|    E|---X----|    E|---x----|    E|---x----|    E|---x---|    E|---x----|



  E7             A#9
e|---0----|    e|---1----|
B|---3----|    B|---1----|
G|---1----|    G|---1----|
D|---0----|    D|---0----|
A|---2----|    A|---1----|
E|---0----|    E|---x----|

[Intro]

e|------------------------------------------------------|
B|------------------------------------------------------|
G|----7----5--------------------------------------------|  x2 (and repeating throughout 
after the verses start
D|------7-----7-----6--5---------5----------------------|
A|-5-------------5--------5---8-----5-------------------|
E|------------------------------------------------------|


[Verse]

Dm7      C7   Bb7       A7        A7addG       Dm     C7
Eeeeeeevenin',    every night you come and you find me

    Bb7                    A7  A7addG     Dm    C7
 Oh, Lord   And you always come and remind me  Oh Yes....

          Bb7   A7    Dm7              C7              Bb7       A7
That my gal is gone, my baby's gone, O Lord       my baby's gone

Dm7      C7    Bb7                A7     A7addG  Dm7    C7
Eeeeeeevenin', can't you see I'm deeply in your power

   Bb7          A7          A7addG   Dm7          C7      Bb7   A7    Dm7 C7 Bb7 A7 A7addG
Oh Lord   Every minute seems like an hour  Oh Lord     since my gal is gone, my baby's gone


[Chorus]

D9            D9              D9             D9      D9                         
Shadows fall   upon the wall   That's when I need your kiss most of all   

             C9                A#9          E7
And though I try, how can I go on?

E7
  Purty baby


[Verse]

Dm7      C7   Bb7       A7        A7addG     Dm7     C7   Bb7
Eeeeeeevenin' let me sleep till gray dawn is breakin'  Oh yes

        A7     A7addG    Dm7    C7  Bb7   A7  A7addG
I don't care if I don't awaken, oh Lord, Lord


[Outro]

(Spice it up!!)

e|---9-----------------------------------------------------------|
B|---------13--10------------------------------------------------|
G|---------------------12b1-12-----10----------------------------|
D|12----12---------12----------12------12------------------------|
A|---------------------------------------------------------------|
E|---------------------------------------------------------------|

Fade

************************************

| b  Bend

************************************
 
 
T-Bone Walker - Evening Tab :: indexed at Ultimate Guitar.
Evening tabs @ 911Tabs
People who played T-Bone Walker - Evening Tab also played these songs by T-Bone Walker:
Stormy Monday, Papa Aint Salty Tab, Papa Aint Salty, Stormy Monday Tab, Guitar Boogie Tab, Stormy Monday

Quick tip, so you can enjoy Evening Tab even more:

If you don't really know how to deal with "Absus4" chord and his equally confusing brothers, just put the mouse cursor over them and you will be shown a helpful chord diagram.

Show us your talent, perform Evening Tab!

Here you can post a video or audio performance. Tell me more ...
Where can we find your performance? Tell me more ...
Your comment:
Please, log in to post your performance.