Artists by letter: A B C D E F G H I J K L M N O P Q R S T U V W X Y Z 0-9

 
Itoshisa To Nukumori Tab
The song has two guitars, this is one of them.

Eventually i'll upload the tab of the other.

Enjoy :D


e|-----------------|---------------|---------------------------|
B|----5h7--5-4-----|-----7-5-4-----|----------5-7h9--7-5-4-----|
G|--4----------4-6-|---4-------4---|--1-2-4-4--------------1---|
D|-----------------|---------------|---------------------------|
A|-----------------|---------------|---------------------------|
E|-----------------|---------------|---------------------------|


e|------------------|----7-5-4-------------|--4-5-7-7---5-4-----------|
B|----5h7--5-4------|----------5-5h7--7h9--|----------5-----4---------|
G|--4----------4-6--|--4-------------------|------------------4-4h6---|
D|------------------|----------------------|--------------------------|
A|------------------|----------------------|--------------------------|
E|------------------|----------------------|--------------------------|


e|-------|-4-5-7-5-4-----4-------|--4-5-7-5-4-----4--------|
B|--5-7--|-----------7-7---4-4-5-|------------7-7---4-4-5--|
G|-------|-----------------------|-------------------------|
D|-------|-----------------------|-------------------------|
A|-------|-----------------------|-------------------------|
E|-------|-----------------------|-------------------------|


e|--4-5-7-12-7-5-4-5-7-12-7-|--4-5-7-5-4-----4-------|--------------|
B|--------------------------|------------7-7---4-4-5-|--4-5---------|
G|--------------------------|------------------------|------4-4-4h6-|
D|--------------------------|------------------------|--------------|
A|--------------------------|------------------------|--------------|
E|--------------------------|------------------------|--------------|



************************************

| h  Hammer-on

************************************
 
 
Masanori Takumi - Itoshisa To Nukumori Tab :: indexed at Ultimate Guitar.
Itoshisa To Nukumori tabs @ 911Tabs
People who played Masanori Takumi - Itoshisa To Nukumori Tab also played these songs by Masanori Takumi:
Itoshisa To Nukumori

Quick tip, so you can enjoy Itoshisa To Nukumori Tab even more:

Try out the AutoScroller option ... It scrolls the page for you, so you can totally focus on nailing that solo. You can choose among different speeds using your mouse or your keyboard (keys 0, 1, 2 and 3).

Show us your talent, perform Itoshisa To Nukumori Tab!

Here you can post a video or audio performance. Tell me more ...
Where can we find your performance? Tell me more ...
Your comment:
Please, log in to post your performance.