Artists by letter: A B C D E F G H I J K L M N O P Q R S T U V W X Y Z 0-9

 
Simple Man Acoustic Tab
[Main Riff]   
              (c-chord)       (G-Chord)            (Am7-Chord)
D#|---------------------|-------------------|------------------------------|
A#|-------------1-------|-------------------|----------1-------------------|
F#|-------0-------0---0-|---------0---------|---2---------2-----2---2----2-|
C#|---------2-------2---|---0-------0---0---|-----2----------2---------2---|
G#|-0-2-3-----3---------|-----2-------2-----|0------0----------------------|
D#|---------------------|-3-----3-----------|------------------------------|
                           Chords
                           ______
  (Am7-Chord)
D#|--3-----------|          C-032010
A#|----1-----2---|          G-320001
F#|-------2------|        Am7-002213
C#|--------------|         Am-002210
G#|--------------|
D#|--------------| Repeat as many times at you want

 

[Chorus]

          C    G         Am
And be a simple kind of man. 
          C  G                Am
Be something you love and understand. 
       C   G          Am
Be a simple kind of man. 
          C           G
Won't you do this for me son, 
        Am
If you can?
 
 
Lynyrd Skynyrd - Simple Man Acoustic Tab :: indexed at Ultimate Guitar.
Simple Man Acoustic tabs @ 911Tabs

About the artist behind Simple Man Acoustic Tab:

Lynyrd Skynyrd (pronounced /ˌlɛnɚdˈskɪnɝd/,Leh-Nerd Skin-Nerd) is an American Southern rock band. The band became prominent in the Southern United States in 1973, and rose to worldwide recognition before several members, including lead vocalist and primary songwriter Ronnie Van Zant, were killed in a plane crash in 1977 near McComb, Mississippi. A tribute band was formed in 1987 for a reunion tour with Johnny Van Zant, Ronnie's younger brother, at the helm, and continues to record music today.

The band was inducted into the Rock and Roll Hall of Fame on March 13, 2006, with members Gary Rossington and Billy Powell, former members Ed King, Bob Burns, and Artimus Pyle, and deceased members Ronnie Van Zant, Allen Collins, Steve Gaines, and Leon Wilkeson.

Indexed at Wikipedia.

Show us your talent, perform Simple Man Acoustic Tab!

Here you can post a video or audio performance. Tell me more ...
Where can we find your performance? Tell me more ...
Your comment:
Please, log in to post your performance.