Artists by letter: A B C D E F G H I J K L M N O P Q R S T U V W X Y Z 0-9

 
You Are Here Tab
			    You Are Here- Needtobreathe
Tabbed by: Jameel Brenneman
Email:[email protected]

Tuning: Standard

Intro: ("Hey...") Guitar 1:
e|---5-----5-----5-----5-------5-|--5-----5-----5-----5---5--5----------|
B|-----3-----3-----3-----3---3---|----3-----3-----3-----3---3--3--------|
G|-0-----0-----0-----0-----0-----|0-----0-----0-----0-------------------|
D|-------------------------------|--------------------------------------|
A|------------3X-----------------|---------last time--------------------|
E|-------------------------------|--------------------------------------|

Intro Cont. Guitar 1 (with effects) 2X:
e|---555-----9----10-10-------------------------------------------------|
B|----------------------------------------------------------------------|
G|----------------------------------------------------------------------|
D|----------------------------------------------------------------------|
A|----------------------------------------------------------------------|
E|----------------------------------------------------------------------|

Intro Cont. Guitar 2 (distortion) 2X :
e|----------------------------------------------------------------------|
B|----------------------------------------------------------------------|
G|--777--9-10-12--------------------------------------------------------|
D|--777--9-10-12--------------------------------------------------------|
A|--555--7-8--10--------------------------------------------------------|
E|----------------------------------------------------------------------|

Verse Guitar 1 (clean, rest at first, come in as distortion holds, soft strumming):
e|--|---|---|----------------------------------------------------------|
B|--|---|---|----------------------------------------------------------|
G|--|-4-|-9-|--------2X------------------------------------------------|
D|--|-4-|-9-|----------------------------------------------------------|
A|--|-2-|-7-|----------------------------------------------------------|
E|--|---|---|----------------------------------------------------------|
     16X 16X

Verse Guitar 2 (distortion):
e|---------------------------------------------------------------------|
B|---------------------------------------------------------------------|
G|---7--7--4----------------4--7--9------------------------------------|
D|---7--7--4----------------4--7--9------------2X----------------------|
A|---5--4--2----------------2--5--7------------------------------------|
E|---------------------------------------------------------------------|

Prechorus Guitar 1 (clean, slow plucking, not sure about this part):
e|---------------------------------------------------------------------|
B|-----7--7------------------------------------------------------------|
G|-----7--7------------------------------------------------------------|
D|--------7------------------------------------------------------------|
A|---------------------------------------------------------------------|
E|---------------------------------------------------------------------|

Chorus Guitar 2 (distortion, guitar 1 can play that intro riff, but you can't really 
it):
e|--------------------------------------------------------------------|
B|--------------------------------------------------------------------|
G|--7-----------------------------------------------------------------|
D|--7--16X---5----------9----------5----------------------------------|
A|--5--------5--16X-----9--16X-----5--16X-----------------------------|
E|-----------3----------7----------3----------------------------------|

Bridge Guitar 1 (distorted):
e|---5-----5-----5-----5-----5-------3-----3-----3-----3----3---------|
B|-----3-----3-----3-----3-----3-------0-----0-----0-----0----0-------|
G|-0-----0-----0-----0-----0-----0--0----0-----0-----0-----0----0-----|
D|--------------------------------------------------------------------|
A|--------------------------------------------------------------------|
E|--------------------------------------------------------------------|

e|----2-----2-----2-----2-----2---------------------------------------|
B|------0-----0-----0-----0-----0-------------------------------------|
G|--4-----4-----4-----4-----4-----4-----------------------------------|
D|--------------------------------------------------------------------|
A|--------------------------------------------------------------------|
E|--------------------------------------------------------------------|
(Here guitar 2 plays chorus, this part is used on the final chorus too)
e|--10-10-10-12-12-12-14-14-14-----------------------------2X---------|
B|-----------------------------12-12-12-10-10-10-10-------------------|
G|--------------------------------------------------------------------|
D|--------------------------------------------------------------------|
A|--------------------------------------------------------------------|
E|--------------------------------------------------------------------|

e|--10-10-10----------------------------------------------------------|
B|-----------14-14-14-12-12-12-12-12-12-10-10-10-10-------------------|
G|--------------------------------------------------------------------|
D|--------------------------------------------------------------------|
A|--------------------------------------------------------------------|
E|--------------------------------------------------------------------|

e|--------------------------------------------------------------------|
B|--12-12-12-12-12-12-12-12-10-10-10-10-10-10-10-10-------------------|
G|--------------------------------------------------------------------|
D|--------------------------------------------------------------------|
A|--------------------------------------------------------------------|
E|--------------------------------------------------------------------|
Then play the "intro cont." as an outro.

That's all i got. Hope you like it, I love this song. Let me know what comments and 
you have, cuz i'm sure you'll have a few.

 
 
Needtobreathe - You Are Here Tab :: indexed at Ultimate Guitar.
You Are Here tabs @ 911Tabs

About the artist behind You Are Here Tab:

Late 2006-Early 2007[1][2]

Genre

Christian rock, CCM

Length

52:35

Label

Atlantic/Word

Producer

Rick Beato, Ed Roland[1]

Professional reviews

All Music Guide link
Jesus Freak Hideout link
Needtobreathe chronology

Daylight
(2006)

The Heat
(2007)

The Heat is the second studio album by the Christian rock band Needtobreathe, released on August 28, 2007 under Atlantic/Word Records.[3] The album reached #164 on Billboard's Top 200 and #2 on the Top Heatseekers charts.[4] The first single from the album, "Signature of Divine (Yahweh)", reached #1 on CHR R&R charts[citation needed], and was the #14 most played song in 2007 on Christian Hit Radio[5]. The Heat was GMA Dove Award-nominated for "Rock/Contemporary Album of the Year", as well as "Rock/Contemporary Song of the Year" for the song "Signature of Divine (Yahweh)".[6]

Indexed at Wikipedia.

Show us your talent, perform You Are Here Tab!

Here you can post a video or audio performance. Tell me more ...
Where can we find your performance? Tell me more ...
Your comment:
Please, log in to post your performance.