Artists by letter: A B C D E F G H I J K L M N O P Q R S T U V W X Y Z 0-9

 
La Vie En Rose Tab
[NOTES]
I attributed this to Louis Armstrong instead of Edith Piaf because the lyrics are in English, 
but the tab works just as well if you sing it in French :-).

[VERSE 1]
   D                     D  Dmaj7                 Dmaj7 Em                      G A7
e|----------------------------------------------------------------------------------|
B|-7---------------------7---7---------------------7---5------------------------3-5-|
G|-7---6---4-------------7---6-----4---------------6---4---------------------6--4-6-|
D|-7------------7---4----7---7---------7--4--------7---5-----7----4-------------5-5-|
A|-------------------------------------------5-----------------------4---5----------|
E|----------------------------------------------------------------------------------|
  Hold me close and hold me fast. That magic spell you cast. This is La Vie en Ro-se

[VERSE 2]
   Em                  G  A7                        A7 Em                    E7 A7
e|----------------------------------------------------------------------------------|
B|-5-------------------3--5-------------------------5--5---------------------5--5---|
G|-4---7----6"--4------4--6------4------------------6--4-------------4-------7--6---|
D|-5----------------5--5--5-----------7-----4-------5--5--------4h5----------6--5---|
A|---------------------------------------------8-------------7---------------7------|
E|----------------------------------------------------------------------------------|
  When you kiss me heaven sighs. And though I close my eyes, I see La Vie en Ro-se
 
[VERSE 3]
   D                    D  Dmaj7              Dmaj7 Em                      G  Gm          
e|--------------------------------------------------------------------------3"-3----|
B|-7--------------------7---7---------------------7-5-----------------------3"-3----|
G|-7---6---4------------7---6-------4-------------6-4--"--------------------4"-3----|
D|-7-------------7--4---7---7----------7-4--------7-5-----7-4-------"-------5--5----|
A|--------------------------------------------5-------------------5------5--4--5"---|
E|--------------------------------------------------------------------------3"-3-----|
  When you press me to your heart, I’m in a world a-part. A world where ro-ses bloom

[BRIDGE]
   Em Em                                       Em Em                             A13 A7
e|-------------------------------------------------------------------------------------|
B|-5--5--------5----5--------5----5-----7------5-5-------5----5-------5---5------7---5-|
G|-4--4----7------------7------------7--7------4-4---7-------------7---------7---6---6-|
D|-5--5---------------------------------7------5-5-------------------------------5---5-|
A|-------------------------------------------------------------------------------------|
E|-------------------------------------------------------------------------------------|
 And when you speak An-gels sing from a-bove. Every-day words seem to turn in-to love songs

[VERSE 5]
   D                        D  Dmaj7              Dmaj7 Em   G A7 A13  D
e|-------------------------------------------------------------------------------------|
B|-7------------------------7--7--------------------7----5---3--5--"7"------7--10------|
G|-7-----6----4-------------7--6---4----------------6----4---4--6--"6"----7-------7+---|
D|-7---------------7--4-----7--7--------7---4-------7----5---5--5"--5"--7--------------|
A|-----------------------------------------------5-------------------------------------|
E|-------------------------------------------------------------------------------------|
   Give your heart and soul to me  and life will al-ways be La  Vie en Rose.
 

************************************
| h   Hammer-on
| +   Natural harmonic
************************************
 
 
Louis Armstrong - La Vie En Rose Tab :: indexed at Ultimate Guitar.
La Vie En Rose tabs @ 911Tabs

About the artist behind La Vie En Rose Tab:

Louis[1] Armstrong[2] (4 August 1901[3] – July 6, 1971), nicknamed Satchmo[4] and Pops, was an American jazz trumpeter and singer.

Armstrong was a charismatic, innovative performer whose improvised soloing was the main influence for a fundamental change in jazz, shifting its focus from collective improvisation to the solo player and improvised soloing. One of the most famous jazz musicians of the 20th century, he was first known as a cornet player, then as a trumpet player, and toward the end of his career he was best known as a vocalist and became one of the most influential jazz singers.

Indexed at Wikipedia.

Show us your talent, perform La Vie En Rose Tab!

Here you can post a video or audio performance. Tell me more ...
Where can we find your performance? Tell me more ...
Your comment:
Please, log in to post your performance.