Artists by letter: A B C D E F G H I J K L M N O P Q R S T U V W X Y Z 0-9

 
Haley Tab
  Hokay, so, here's de Earth... Haha, some of u'll get that, but now, for the song. This
kicks a shinanagin load of arss. Both in meaning and musical talent. It's simple, yet 
Gay? Yes pwease..

On that note, I have no idea what I'm talking about when I try to talk music to other 
players. I've never taken any lessons, hence the lack of musical language. Commo? OK

Band: NeedToBreathe
Song: Haley
Producers: ...Who cares?

                                 ~~NOTE~~                                  The tuning is 
to me. It's kind of Drop C, but both the top and bottom strings have the same tune...(D)

Intro

D--0--0--0--0-----0----0--0--0--0----0----0--0--0--0----0---0-|
A---0--0--0--------0----0--0--0--0----0----0--0--0--0----0--0--| > slooow
F-4--4--4--4--4/6---62--2--2--2--2/4--4/6--6--6--6--64----2--|
C--------------------------------------------------------------|
G--------------------------------------------------------------|
D--------------------------------------------------------------|

Verse(1)

D---0---0--0-0-0--0-0-0--0-0----|
A---0---0--0-0-0--0-0-0--0-0-----| 
F-4-4-4-4--4/6-6--64-4--42-  -| (x2)
C-4-4-4-4--4/6-6--64-4--42-----|  /
G-2-2-2-2--2/4-4--42-2--2-----| /
D-x-x-x-x--x-x-x--x-x-x--x-x-----|
  ^
The First stroke is just that power chord (Labled with the arrow)
ALSO!!! I have put in strumming patterns... That would just take forever, but it's not hard.

Chorus(2)

D-xx--0/0--0--0/0--0--0--0--0--0---|
A-xx--0/0--0--0/0--0--0--0--0--0----| 
F-xx--4/6--6--6/9--9--96--6--64--4----|  
C-xx--4/6--6--6/9--9--96--6--64--4 ---| (x2)
G-xx--2/4--4--4/7--7--74--4--42--2----| /
D-xx--x/x--x--x/x--x--xx--x--xx--x----|

Verse(2)

D---0---0--0-0-0--0-0-0--0-0----|
A---0---0--0-0-0--0-0-0--0-0-----| 
F-4-4-4-4--4/6-6--64-4--42-  -| (x2)
C-4-4-4-4--4/6-6--64-4--42-----|  /
G-2-2-2-2--2/4-4--42-2--2-----| /
D-x-x-x-x--x-x-x--x-x-x--x-x-----|

Chorus(2)

D-xx--0/0--0--0/0--0--0--0--0--0---|
A-xx--0/0--0--0/0--0--0--0--0--0----| 
F-xx--4/6--6--6/9--9--96--6--64--4----|  
C-xx--4/6--6--6/9--9--96--6--64--4 ---| (x2)
G-xx--2/4--4--4/7--7--74--4--42--2----| /
D-xx--x/x--x--x/x--x--xx--x--xx--x----|

Solo

D--0-0-0-0-0-------0-0-0-0--0--0-0-0-0-0---7-7-7-7--(0)---|
A-2-2-2-2-2-2/10-10-9-7-5-(5)2-2-2-2-2-2/9-9-9-9-9(5)2-|
F---------------------------------------------------------|
C---------------------------------------------------------|
G---------------------------------------------------------|
D---------------------------------------------------------|

D--0-0-0-0-0-------0-0-0-0--0--0-0-0-0-0----12--12--12--12--12-|
A-2-2-2-2-2-2/10-10-9-7-5-(5)2-2-2-2-2-2/12--12--12--12--12---|
F--------------------------------------------------------------|
C--------------------------------------------------------------|
G--------------------------------------------------------------|
D--------------------------------------------------------------|

Outro

D-xx--0/0--0--0/0--0--0--0--0--0---|
A-xx--0/0--0--0/0--0--0--0--0--0----| 
F-xx--4/6--6--6/9--9--96--6--64--4----|  
C-xx--4/6--6--6/9--9--96--6--64--4 ---| (x2)
G-xx--2/4--4--4/7--7--74--4--42--2----| /
D-xx--x/x--x--x/x--x--xx--x--xx--x----|
                                   ^
                          (Let last note ring)


My work here is done.
           ~Nick
                Dahl~  9/15/07

 
 
Needtobreathe - Haley Tab :: indexed at Ultimate Guitar.
Haley tabs @ 911Tabs

About the artist behind Haley Tab:

Late 2006-Early 2007[1][2]

Genre

Christian rock, CCM

Length

52:35

Label

Atlantic/Word

Producer

Rick Beato, Ed Roland[1]

Professional reviews

All Music Guide link
Jesus Freak Hideout link
Needtobreathe chronology

Daylight
(2006)

The Heat
(2007)

The Heat is the second studio album by the Christian rock band Needtobreathe, released on August 28, 2007 under Atlantic/Word Records.[3] The album reached #164 on Billboard's Top 200 and #2 on the Top Heatseekers charts.[4] The first single from the album, "Signature of Divine (Yahweh)", reached #1 on CHR R&R charts[citation needed], and was the #14 most played song in 2007 on Christian Hit Radio[5]. The Heat was GMA Dove Award-nominated for "Rock/Contemporary Album of the Year", as well as "Rock/Contemporary Song of the Year" for the song "Signature of Divine (Yahweh)".[6]

Indexed at Wikipedia.

Show us your talent, perform Haley Tab!

Here you can post a video or audio performance. Tell me more ...
Where can we find your performance? Tell me more ...
Your comment:
Please, log in to post your performance.