Artists by letter: A B C D E F G H I J K L M N O P Q R S T U V W X Y Z 0-9

 
Bridges Chords
[Main Melody]

e|---------------------------------------------------------------------------------------------------------|
B|--9-------5-----4-------5-4-----4-------5-----4-------5-4------------------------------------------------|
G|----8-------4-----4---4-----4-----4-------4-----4---4-----4 ---------------------------------------------|
D|---------------------------------------------------------------------------------------------------------|
A|7-----7-4---------------------2-----2-4------------------------------------------------------------------|
E|--------------4-----4-----------------------4-----4------------------------------------------------------|


[2nd Melody]

e|------------------------4---------------------------4---------------------------4------------------------|
B|4---4-4---4-4-----4h5p4---4---4-----------4---4h5p4---4-4---4-4---4-4-----4h5p4---4-4---4-4---4-4---4-4--|
G|--4-----4-----4-4-----------4---4-3---3-4---4-------------4-----4-----4-4-------------4-----4-----4-----4|
D|------------------------------------4--------------------------------------------------------------------|
A|---------------------------------------------------------------------------------------------------------|
E|---------------------------------------------------------------------------------------------------------|


[Solo]

e|---------------------7h9-7-7h9-7-7h9-7------------------------------4------------------------------------|
B|4h5-4-------------------------------------4h5-4-----------------------7-4--------------------------------|
G|------6-4-4p6-4---4-----------------------------6-4-4p6-4---4----6b-------6bp4---------------------------|
D|----------------6-----------------------------------------6----------------------------------------------|
A|---------------------------------------------------------------------------------------------------------|
E|---------------------------------------------------------------------------------------------------------|



************************************

| h  Hammer-on
| p  Pull-off
| b  Bend 

************************************
 
 
Koresma - Bridges Chords :: indexed at Ultimate Guitar.
Bridges tabs @ 911Tabs
People who played Koresma - Bridges Chords also played these songs by Koresma:
Bridges

Quick tip, so you can enjoy Bridges Chords even more:

YourChords.com Guitar Chords and Tabs Archive is currently indexing over 240'000 songs from 21'000+ different artists. And new chords just keep on coming in, so you will surely never run out of them.

Show us your talent, perform Bridges Chords!

Here you can post a video or audio performance. Tell me more ...
Where can we find your performance? Tell me more ...
Your comment:
Please, log in to post your performance.