Artists by letter: A B C D E F G H I J K L M N O P Q R S T U V W X Y Z 0-9

 
Somewhere In Time Tab
Title: Somewhere In Time (John Barry)
youtube (acoustic instrumental cover) video: https://www.youtube.com/watch?v=_NoSJqp-vv8

                             Amaj7                         F#m
E||-----------------------|--4--------------------------|---------5-----4--------0--|
B||---------------0----2--|-----------2-----------2-----|------------------2--------|
G||-----------2-----------|--------2-----2-----2--------|---------------------2-----|
D||-----------------------|-----------------------------|------4-----4--------------|
A||-----------------------|--0--------------0-----------|---------------------------|
E||-----------------------|--------------------------4--|--2------------2-----------|


  D6          Dmaj7             D6                         Bm7          Bm7/A
-----------------------------|--------------------------|------------------------------|
--0-----------2--------------|-----------0--------------|--0---------2--0-----------2--|
--------2--------------2-----|--------2---------1-L--2--|------2--------------2--------|
-----4-----4--------4-----4--|-----4--------4-----------|---------0--------------0-----|
--5-----------5--------------|--5-----------------------|--2------------0--------------|
-----------------------------|--------------------------|------------------------------|


  E/G#          E              Amaj7                         A7
-------------2-----------4--|--0--------------------------|------------------------0----|
--0-------------------------|-----------2--------2--------|--------------2----3---------|
----------------1-----------|--------1-----1--------2--1--|--0--------0-----------------|
----------2-----------2-----|-----------------------------|--------2-----2--------------|
----------------------------|--0--------------0-----------|-----0-----------------------|
-------4-----------0--------|-----------------------------|-----------------------------|


  D                          Bm                         F#m
--2-----------------------|--------7-----5--------4--|--5-------------------------|
--------3-----------------|-----------------0--------|---------------5p--2--------|
-----2-----2-----2--------|-----7-----7--------------|---------2------------2-----|
--0-----------0-----0-----|--------------------0-----|------4-----4------------4--|
--------------------------|--------------------------|----------------------------|
-----------------------9--|--7-----------------------|--2-------------------------|


  D                          C#7                         G#
--------5-----4--------2--|--4------------------------|--4--------------------------|
-----7-----7-----3--------|---------------------6-----|-----------4--4----6----7----|
--------------------2-----|------4-----4-----4-----4--|--------5--------------------|
--0-----------0-----------|---------3-----------------|-----6-----------------------|
--------------------------|--4------------4-----------|-----------------------------|
--------------------------|---------------------------|--4--------------------------|


  E                                                  Amaj7
--4-----------------------|--4--------------------|--4--------------------------|
--------5-----------5-----|---------------0----2--|-----------2-----------2-----|
-----4-----4-----4-----4--|--4--------2-----------|--------2-----2-----2--------|
--------------------------|-----------------------|-----------------------------|
--------------------------|-----------------------|--0--------------0-----------|
--0-----------0-----------|--0--------------------|--------------------------4--|


  F#m                         D6          Dmaj7             D6
---------5-----4--------0--|-----------------------------|--------------------------|
------------------2--------|--0-----------2--------------|-----------0--------------|
---------------------2-----|--------2--------------2-----|--------2---------1-L--2--|
------4-----4--------------|-----4-----4--------4-----4--|-----4--------4-----------|
---------------------------|--5-----------5--------------|--5-----------------------|
--2------------2-----------|-----------------------------|--------------------------|


  Bm7          Bm7/A             E/G#          E              Amaj7
------------------------------|-------------2-----------4--|--0--------------------------|
--0---------2--0-----------2--|--0-------------------------|-----------2--------2--------|
------2--------------2--------|----------------1-----------|--------1-----1--------2--1--|
---------0--------------0-----|----------2-----------2-----|-----------------------------|
--2------------0--------------|----------------------------|--0--------------0-----------|
------------------------------|-------4-----------0--------|-----------------------------|


  A7                         D                          Bm
-----------------------0--|--2-----------------------|--------7-----5--------4--|
--------------2---3-------|--------3-----------------|-----------------0--------|
--0--------0--------------|-----2-----2-----2--------|-----7-----7--------------|
--------2-----2-----------|--0-----------0-----0-----|--------------------0-----|
-----0--------------------|--------------------------|--------------------------|
--------------------------|-----------------------9--|--7-----------------------|


  F#m                                  D                          C#7

--5---------------------------------|--------5-----4--------2--|--4------------------------|
------------2----------5p--2--------|-----7-----7-----3--------|---------------------6-----|
---------2--------------------2-----|--------------------2-----|------4-----4-----4-----4--|
------4--------------------------4--|--0-----------0-----------|---------3-----------------|
------------------------------------|--------------------------|--4------------4-----------|
--2---------------------------------|--------------------------|---------------------------|


  G#                            E
--4--------------------------|--4-----------------------|--4----9~----7~------0--|
-----------4--4----6----7----|--------5-----------5-----|--5---------------------|
--------5--------------------|-----4-----4-----4-----4--|--4---------------------|
-----6-----------------------|--------------------------|------------------------|
-----------------------------|--------------------------|------------------------|
--4--------------------------|--0-----------0-----------|--0---------------------|


  F#m7                           Dmaj7                         Bm
--9---------------------------|--------------------------9--|--7-----------------------|
----------10-----------10-----|-----------2-----3-----------|-----0-----0-----0-----0--|
-------9------9-----9---------|--------2-----2-----2--------|--------7-----------7-----|
------------------------------|--0--------------------0-----|--------------0-----------|
--9--------------9---------7--|-----------------------------|--------------------------|
------------------------------|-----------------------------|--7-----------------------|


  E                          F#m                         D
-----------------------7--|--5---------2--5--------2--|--5-----------7~----4----2----|
--------0-----2-----------|------2-----------2--------|-----7-----0------------------|
-----1-----1-----1--------|---------2-----------2-----|--------7---------------------|
--------------------------|--4------------4-----------|--0---------------------------|
--------------------------|---------------------------|------------------------------|
--0-----------------0-----|---------------------------|------------------------------|


  C#7                         E                           Amaj7
--4------------------------|--4~-----------------------|--4--------------------------|
---------------------------|--5--------------0----2----|-----------2-----------2-----|
---------4-----------4-----|--4---------2--------------|--------2-----2-----2--------|
------3-----3-----3-----3--|---------------------------|-----------------------------|
--4------------4-----------|---------------------------|--0--------------0-----------|
---------------------------|--0------------------------|--------------------------4--|


  F#m                         D6          Dmaj7             E7
---------5-----4--------0--|--7-----------9--------------|-------------------------|
------------------2--------|--------7--------------7-----|--------3-----3-------2--|
---------------------2-----|-----7-----7--------7-----7--|-----1-----1-----1-------|
------4-----4--------------|--0-----------0--------------|-------------------------|
---------------------------|-----------------------------|-------------------------|
--2------------2-----------|-----------------------------|--0----------------------|


  Aadd9                         Em/G                      Aadd9
--0--------------------------|--0----------------------|--------------0-----------||
-----------------2-----------|-------0--3----2---------|------------2-------------||
--------------4-----4--------|--------------------4----|----------4---------------||
-----------2-----------2-----|-------------------------|--------2-----------------||
--------0-----------------0--|-------------------------|--0-----------------------||
-----------------------------|--3----------------------|--------------------------||
 
 
John Barry - Somewhere In Time Tab :: indexed at Ultimate Guitar.
Somewhere In Time tabs @ 911Tabs
People who played John Barry - Somewhere In Time Tab also played these songs by John Barry:
Somewhere In Time Tab, The Persuaders Tab, Your Love Amazes Me Chords, The Ipcress File Tab, Born Free Chords, If I Had Any Pride Chords

About the artist behind Somewhere In Time Tab:

John Barry, OBE (born John Barry Prendergast on 3 November 1933 in York, England) is a renowned Golden Globe and five-time Academy Award-winning English film score composer.

Indexed at Wikipedia.

Show us your talent, perform Somewhere In Time Tab!

Here you can post a video or audio performance. Tell me more ...
Where can we find your performance? Tell me more ...
Your comment:
Please, log in to post your performance.