Artists by letter: A B C D E F G H I J K L M N O P Q R S T U V W X Y Z 0-9

Enslave The Astral Forest Tab - Naglfar


 
Enslave The Astral Forest Tab
NAGLFAR

ENSLAVE THE ASTRAL FORTRESS


Transcribed by Jordi Rubio ([email protected])
>From the great album Vittra.
Normal tuning (E)

     RIFF A
E-|------------------------------------------------------------------|
B-|------------------------------------------------------------------|
G-|------------------------------------------------------------------|
D-|--5----------------9---------9--7---5-------5-----5h7p5--4--------|
A-|--7----------------7----------------3-------5------------5--------|
E-|--7----------------7----------------3-------3------------5--------|
                                  
Play RIFF A four times

     RIFF A-1
E-|------------------------------------------------------------------|
B-|------------------------------------------------------------------|
G-|------------------------------------------------------------------|
D-|------9--7-------------9--10--9--7--5----4--5-----4--7-5-4-5------|
A-|--7---------10--9--7----------------------------------------------|
E-|------------------------------------------------------------------|

Play RIFF A and RIFF A-1 picking very quickly two times

     RIFF B
E-|------------------------------------------------------------------|
B-|------------------------------------------------------------------|
G-|------------------------------------------------------------------|
D-|--7-----------------5----------7-----------------5----------------|
A-|--5-----------------3----------5-----------------3----------------|
E-|------------------------------------------------------------------|
  |                                                                  |
  |  RIFF B-1                                                        |
E-|------------------------------------------------------------------|
B-|------------------------------------------------------------------|
G-|------------------------------------------------------------------|
D-|-----------5----5---7---5---3-----------5----5---7---5---7--------|
A-|--5----8------8----------------5----8------8----------------------|
E-|------------------------------------------------------------------|

Play RIFF B and RIFF B-1 picking very quickly two times
Play RIFF A and RIFF A-1 picking very quickly two times

     RIFF C
E-|------------------------------------------------------------------|
B-|------------------------------------------------------------------|
G-|--5---5-5--5-5-5--7---7-7--7-7-7--9---9-9--9-9-9--9---9-9--9-9-9--|
D-|--5---5-5--5-5-5--7---7-7--7-7-7--9---9-9--9-9-9--9---9-9--9-9-9--|
A-|--3---3-3--3-3-3--5---5-5--5-5-5--7---7-7--7-7-7--7---7-7--7-7-7--|
E-|------------------------------------------------------------------|
  |
  |  RIFF C-1
E-|------------------------------------------------------------------|
B-|------------------------------------------------------------------|
G-|------------------------------------------------------------------|
D-|--9p7-7--7-9-7-9--9p7-7--7-9-7-9--9p7-7--7-9-7-9-9p7-7--7-9-7-9---|
A-|-------10--------------10-------------10--------------10----------|
E-|------------------------------------------------------------------|
           .               .              .               .

Play RIFF C and RIFF C-1
Play RIFF B and RIFF B-1 picking very quickly two times
Play RIFF A and RIFF A-1 picking very quickly two times

     RIFF D
E-|------------------------------------------------------------------|
B-|------------------------------------------------------------------|
G-|------------------------------------------------------------------|
D-|------5-----5---5-----5-----5---5-----4-----4---4-----4-----4---4-|
A-|--7-7---7-7---7---7-7---7-7---7---5-5---5-5---5---5-5---5-5---5---|
E-|------------------------------------------------------------------|
  |  . .   . .   .   . .   . .   .   . .   . .   .   . .   . .   .   |
  |  RIFF D-1                                                        |
E-|------------------------------------------------------------------|
B-|------------------------------------------------------------------|
G-|------------------------------------------------------------------|
D-|--5-5-----------------------------4-4-----------------------------|
A-|--7-7-----------------------------5-5-----------------------------|
E-|------------------------------------------------------------------|
     . .                             . .

E-|------------------------------------------------------------------|
B-|------------------------------------------------------------------|
G-|------------------------------------------------------------------|
D-|------2-----2---2-----4-----4---4-----5-----5---5-----5-----5---5-|
A-|--3-3---3-3---3---5-5---5-5---5---7-7---7-7---7---7-7---7-7---7---|
E-|------------------------------------------------------------------|
  |  . .   . .   .   . .   . .   .   . .   . .   .   . .   . .   .   |
  |                                                                  |
E-|------------------------------------------------------------------|
B-|------------------------------------------------------------------|
G-|------------------------------------------------------------------|
D-|--2---------------4---------------5-------------------------------|
A-|--3---------------5---------------7-------------------------------|
E-|------------------------------------------------------------------|

Play RIFF D and RIFF D-1
Play RIFF D two times under the GUITAR SOLO 1

     GUITAR SOLO 1
E-|------------------------------------------------------------------|
B-|------------------------------------------------------------------|
G-|-------------7--9--7-7--9--7-7--7h9p7-5--5h7p5-4--4-5--5-7-9~~---|
D-|--9~--7-9-10------------------------------------------------------|
A-|------------------------------------------------------------------|
E-|------------------------------------------------------------------|

E-|------------------------------------------------------------------|
B-|-----------------------------10-8-7-8-10-8-7-8-8-7-5-7-8-7-5-7----|
G-|-9-11--12-11-9-11-12-11-9-11-11-9-7-9-11-9-7-9-9-7-5-7-9-7-5-79ah|
D-|--------9--7-5--7--9--7-5--7--*-*-*--*-*-*-*-*-*-*-*-*-*-*-*------|
A-|--------*--*-*--*--*--*-*--*--------------------------------------|
E-|------------------------------------------------------------------|

     RIFF E(Acoustic Guitar)
E-|------------------------------------------------------------------|
B-|------------------------------------------------------------------|
G-|------------------------------------------------------------------|
D-|-----2------2-------4------4-------5------5-------5------5--------|
A-|--3----3--3---3--5----5--5---5--7----7--7---7--7----7--7---7------|
E-|------------------------------------------------------------------|

Play RIFF E four times under GUITAR SOLO 2

     GUITAR SOLO 2
E-|------------------------------------------------------------------|
B-|------------------------------------------------------------------|
G-|--12~---12-12-11---11br---------------11--12------11--12--14------|
D-|------------------------14---14-14-14---------14------------------|
A-|------------------------------------------------------------------|
E-|------------------------------------------------------------------|

E-|------------------------------------------------------------------|
B-|-------13--12--13--12--------------12-13-12-----------------------|
G-|--14fb----------------14--14-14-14----------14-12--12-11---12-11--|
D-|------------------------------------------------------------------|
A-|------------------------------------------------------------------|
E-|------------------------------------------------------------------|

E-|------------------------------------------------------------------|
B-|------------------------------------------------------------------|
G-|--12-11-12-11--12-11--12-11---------------------------------------|
D-|----------------------------14-12---------------------------------|
A-|----------------------------------14-12~---10--9--9--10--9--7~~---|

E-|------------------------------------------------------------------|

Play RIFF A and RIFF A-1 two times
Play RIFF C and RIFF C-1 four times, last two times playing RIFF C-2

     RIFF C-2
E-|------------------------------------------------------------------|
B-|------------------------------------------------------------------|
G-|--12p11-11----11-12-11-12--12p11-11----11-12-11-12----------------|
D-|-----------14-----------------------14----------------------------|
A-|------------------------------------------------------------------|
E-|------------------------------------------------------------------|
              
E-|------------------------------------------------------------------|
B-|------------------------------------------------------------------|
G-|--12p11----11-12-14-12-11--12p11-11----11-12-11-12----------------|
D-|--------14--------------------------14----------------------------|
A-|------------------------------------------------------------------|
E-|------------------------------------------------------------------|

Play RIFF D, taking this ending

E-|----------------------------------------|
B-|----------------------------------------|
G-|----------------------------------------|
D-|------5-----7---5-----5-----7---5-------|
A-|--7-7---7-7---7---7-7---7-7---7---------|
E-|----------------------------------------|
     . .   . .   .   . .   . .   .

     RIFF F
E-|------------------------------------------------------------------|
B-|------------------------------------------------------------------|
G-|------------------------------------------------------------------|
D-|------5-----7---5-----5-----7---5-----4-----5---4-----4-----5---4-|
A-|--7-7---7-7---7---7-7---7-7---7---5-5---5-5---5---5-5---5-5---5---|
E-|------------------------------------------------------------------|
     . .   . .   .   . .   . .   .   . .   . .   .   . .   . .   .
 
E-|------------------------------------------------------------------|
B-|------------------------------------------------------------------|
G-|------------------------------------------------------------------|
D-|------2-----4---2-----4-----5---4-----5-----7---5-----5-----7---5-|
A-|--3-3---3-3---3---5-5---5-5---5---7-7---7-7---7---7-7---7-7---7---|
E-|------------------------------------------------------------------|
     . .   . .   .   . .   . .   .   . .   . .   .   . .   . .   .
 
Play RIFF F

    Ending
E-|----------------|
B-|----------------|
G-|----------------|
D-|-----5----------|
A-|-----7----------|
E-|-----0----------|

Please send corrections, comments or wathever else at [email protected]

 
 
Naglfar - Enslave The Astral Forest Tab :: indexed at Ultimate Guitar.
Enslave The Astral Forest tabs @ 911Tabs

About the artist behind Enslave The Astral Forest Tab:

Naglfar (not to be confused with the German Nagelfar) is a Swedish black metal band formed in 1992. The group was formed by Jens Rydén and Kristoffer Olivius, originally under the name "Uninterred".

Indexed at Wikipedia.

Show us your talent, perform Enslave The Astral Forest Tab!

Here you can post a video or audio performance. Tell me more ...
Where can we find your performance? Tell me more ...
Your comment:
Please, log in to post your performance.