Artists by letter: A B C D E F G H I J K L M N O P Q R S T U V W X Y Z 0-9

 
Where Did You Go Tab
Tuning: Drop B


[Intro] 

  (fade in) (Distortion)
C#|------------------|----------------|
G#|------------------|----------------|
E |-5----------------|----------------|
B |-3----------------|----------------|
F#|-3----------------|----------------|
B |-3----------------|----------------|


[Intro] 

  (Distortion)
C#|---------------|---------------|---------------|---------------|
G#|---------------|---------------|---------------|---------------|
E |-5--5--x-x-x-x-|-5--5--x-x-x-x-|-5--5--x-x-x-x-|-5--5--x-x-x-x-|
B |-3--3--x-x-x-x-|-3--3--x-x-x-x-|-3--3--x-x-x-x-|-3--3--x-x-x-x-|
F#|-3--3--x-x-x-x-|-3--3--x-x-x-x-|-3--3--x-x-x-x-|-3--3--x-x-x-x-|
B |-3--3--x-x-x-x-|-3--3--x-x-x-x-|-3--3--x-x-x-x-|-3--3--x-x-x-x-|

C#|-----------------|-----------------|---------------|---------------|
G#|-----------------|-----------------|---------------|---------------|
E |-10--10--x-x-x-x-|-10--10--x-x-x-x-|-7--7--x-x-x-x-|-7--7--x-x-x-x-|
B |-8---8---x-x-x-x-|-8---8---x-x-x-x-|-5--5--x-x-x-x-|-5--5--x-x-x-x-|
F#|-8---8---x-x-x-x-|-8---8---x-x-x-x-|-5--5--x-x-x-x-|-5--5--x-x-x-x-|
B |-8---8---x-x-x-x-|-8---8---x-x-x-x-|-5--5--x-x-x-x-|-5--5--x-x-x-x-|     REAPEAT 2X


[Verse] 

  (Clean)
C#|---------------|-------------|---------------------|-----------------|
G#|---------------|-------------|---------------------|-----------------|
E |-5-5--5-5-5--5-|-5--5--5--5--|-10-10--10-10-10--10-|-10--10--10--10--|
B |-3-3--3-3-3--3-|-3--3--3--3--|-8--8---8--8--8---8--|-8---8---8---8---|
F#|-3-3--3-3-3--3-|-3--3--3--3--|-8--8---8--8--8---8--|-8---8---8---8---|
B |-3-3--3-3-3--3-|-3--3--3--3--|-8--8---8--8--8---8--|-8---8---8---8---|     REAPEAT 2X


[Pre-Chorus]

C#|------------------|----------------|------------------|----------------|
G#|------------------|----------------|------------------|----------------|
E |-5----------------|----------------|-2----------------|----------------|
B |-3----------------|----------------|-0----------------|----------------|
F#|-3----------------|----------------|-0----------------|----------------|
B |-3----------------|----------------|-0----------------|----------------|

C#|------------------|----------------|------------------|-----------------------|
G#|------------------|----------------|------------------|-----------------------|
E |-5----------------|----------------|-2----------------|-10--x--x--x--x--x-----|
B |-3----------------|----------------|-0----------------|-8---x--x--x--x--x-----|
F#|-3----------------|----------------|-0----------------|-8---x--x--x--x--x-----|
B |-3----------------|----------------|-0----------------|-8---x--x--x--x--x-----|


[Chorus]

C#|---------------|---------------|---------------|---------------|
G#|---------------|---------------|---------------|---------------|
E |-5--5--x-x-x-x-|-5--5--x-x-x-x-|-5--5--x-x-x-x-|-5--5--x-x-x-x-|
B |-3--3--x-x-x-x-|-3--3--x-x-x-x-|-3--3--x-x-x-x-|-3--3--x-x-x-x-|
F#|-3--3--x-x-x-x-|-3--3--x-x-x-x-|-3--3--x-x-x-x-|-3--3--x-x-x-x-|
B |-3--3--x-x-x-x-|-3--3--x-x-x-x-|-3--3--x-x-x-x-|-3--3--x-x-x-x-|

C#|---------------|---------------|---------------|---------------|
G#|---------------|---------------|---------------|---------------|
E |-2--2--x-x-x-x-|-2--2--x-x-x-x-|-2--2--x-x-x-x-|-2--2--x-x-x-x-| 
B |-0--0--x-x-x-x-|-0--0--x-x-x-x-|-0--0--x-x-x-x-|-0--0--x-x-x-x-| 
F#|-0--0--x-x-x-x-|-0--0--x-x-x-x-|-0--0--x-x-x-x-|-0--0--x-x-x-x-| 
B |-0--0--x-x-x-x-|-0--0--x-x-x-x-|-0--0--x-x-x-x-|-0--0--x-x-x-x-|     REAPEAT 2X


[Verse 2] 

  (Clean)
C#|---------------|-------------|---------------------|-----------------|
G#|---------------|-------------|---------------------|-----------------|
E |-5-5--5-5-5--5-|-5--5--5--5--|-10-10--10-10-10--10-|-10--10--10--10--|
B |-3-3--3-3-3--3-|-3--3--3--3--|-8--8---8--8--8---8--|-8---8---8---8---|
F#|-3-3--3-3-3--3-|-3--3--3--3--|-8--8---8--8--8---8--|-8---8---8---8---|
B |-3-3--3-3-3--3-|-3--3--3--3--|-8--8---8--8--8---8--|-8---8---8---8---|     REAPEAT 2X


[Pre-Chorus]

C#|------------------|----------------|------------------|----------------|
G#|------------------|----------------|------------------|----------------|
E |-5----------------|----------------|-2----------------|----------------|
B |-3----------------|----------------|-0----------------|----------------|
F#|-3----------------|----------------|-0----------------|----------------|
B |-3----------------|----------------|-0----------------|----------------|

C#|------------------|----------------|------------------|-----------------------|
G#|------------------|----------------|------------------|-----------------------|
E |-5----------------|----------------|-2----------------|-10--x--x--x--x--x-----|
B |-3----------------|----------------|-0----------------|-8---x--x--x--x--x-----|
F#|-3----------------|----------------|-0----------------|-8---x--x--x--x--x-----|
B |-3----------------|----------------|-0----------------|-8---x--x--x--x--x-----|


[Chorus]

C#|---------------|---------------|---------------|---------------|
G#|---------------|---------------|---------------|---------------|
E |-5--5--x-x-x-x-|-5--5--x-x-x-x-|-5--5--x-x-x-x-|-5--5--x-x-x-x-|
B |-3--3--x-x-x-x-|-3--3--x-x-x-x-|-3--3--x-x-x-x-|-3--3--x-x-x-x-|
F#|-3--3--x-x-x-x-|-3--3--x-x-x-x-|-3--3--x-x-x-x-|-3--3--x-x-x-x-|
B |-3--3--x-x-x-x-|-3--3--x-x-x-x-|-3--3--x-x-x-x-|-3--3--x-x-x-x-|

C#|---------------|---------------|---------------|---------------|
G#|---------------|---------------|---------------|---------------|
E |-2--2--x-x-x-x-|-2--2--x-x-x-x-|-2--2--x-x-x-x-|-2--2--x-x-x-x-| 
B |-0--0--x-x-x-x-|-0--0--x-x-x-x-|-0--0--x-x-x-x-|-0--0--x-x-x-x-| 
F#|-0--0--x-x-x-x-|-0--0--x-x-x-x-|-0--0--x-x-x-x-|-0--0--x-x-x-x-| 
B |-0--0--x-x-x-x-|-0--0--x-x-x-x-|-0--0--x-x-x-x-|-0--0--x-x-x-x-|     REAPEAT 2X


[Bridge] 

  (Clean)
C#|---------------|-------------|---------------------|-----------------|
G#|---------------|-------------|---------------------|-----------------|
E |-5-5--5-5-5--5-|-5--5--5--5--|-10-10--10-10-10--10-|-10--10--10--10--|
B |-3-3--3-3-3--3-|-3--3--3--3--|-8--8---8--8--8---8--|-8---8---8---8---|
F#|-3-3--3-3-3--3-|-3--3--3--3--|-8--8---8--8--8---8--|-8---8---8---8---|
B |-3-3--3-3-3--3-|-3--3--3--3--|-8--8---8--8--8---8--|-8---8---8---8---|     REAPEAT 2X


  (Distortion)
C#|---------------|---------------|---------------|---------------|
G#|---------------|---------------|---------------|---------------|
E |-5--5--x-x-x-x-|-5--5--x-x-x-x-|-5--5--x-x-x-x-|-5--5--x-x-x-x-|
B |-3--3--x-x-x-x-|-3--3--x-x-x-x-|-3--3--x-x-x-x-|-3--3--x-x-x-x-|
F#|-3--3--x-x-x-x-|-3--3--x-x-x-x-|-3--3--x-x-x-x-|-3--3--x-x-x-x-|
B |-3--3--x-x-x-x-|-3--3--x-x-x-x-|-3--3--x-x-x-x-|-3--3--x-x-x-x-|

C#|-----------------|-----------------|---------------|---------------|
G#|-----------------|-----------------|---------------|---------------|
E |-10--10--x-x-x-x-|-10--10--x-x-x-x-|-7--7--x-x-x-x-|-7--7--x-x-x-x-|
B |-8---8---x-x-x-x-|-8---8---x-x-x-x-|-5--5--x-x-x-x-|-5--5--x-x-x-x-|
F#|-8---8---x-x-x-x-|-8---8---x-x-x-x-|-5--5--x-x-x-x-|-5--5--x-x-x-x-|
B |-8---8---x-x-x-x-|-8---8---x-x-x-x-|-5--5--x-x-x-x-|-5--5--x-x-x-x-|     REAPEAT 2X


[Chorus]

C#|---------------|---------------|---------------|---------------|
G#|---------------|---------------|---------------|---------------|
E |-5--5--x-x-x-x-|-5--5--x-x-x-x-|-5--5--x-x-x-x-|-5--5--x-x-x-x-|
B |-3--3--x-x-x-x-|-3--3--x-x-x-x-|-3--3--x-x-x-x-|-3--3--x-x-x-x-|
F#|-3--3--x-x-x-x-|-3--3--x-x-x-x-|-3--3--x-x-x-x-|-3--3--x-x-x-x-|
B |-3--3--x-x-x-x-|-3--3--x-x-x-x-|-3--3--x-x-x-x-|-3--3--x-x-x-x-|

C#|---------------|---------------|---------------|---------------|
G#|---------------|---------------|---------------|---------------|
E |-2--2--x-x-x-x-|-2--2--x-x-x-x-|-2--2--x-x-x-x-|-2--2--x-x-x-x-| 
B |-0--0--x-x-x-x-|-0--0--x-x-x-x-|-0--0--x-x-x-x-|-0--0--x-x-x-x-| 
F#|-0--0--x-x-x-x-|-0--0--x-x-x-x-|-0--0--x-x-x-x-|-0--0--x-x-x-x-| 
B |-0--0--x-x-x-x-|-0--0--x-x-x-x-|-0--0--x-x-x-x-|-0--0--x-x-x-x-|     REAPEAT 2X


[Outro] 

  (Fade out)
C#|------------------|----------------|
G#|------------------|----------------|
E |-5----------------|----------------|
B |-3----------------|----------------|
F#|-3----------------|----------------|
B |-3----------------|----------------|



************************************

| x  Dead note

************************************
 
 
Downplay - Where Did You Go Tab :: indexed at Ultimate Guitar.
Where Did You Go tabs @ 911Tabs
People who played Downplay - Where Did You Go Tab also played these songs by Downplay:
Hated You From Hello Chords, Sleep Tab, Tomorrow Chords, The One Who Laughs Last Tab, Digging It Out Tab, Tomorrow

Quick tip, so you can enjoy Where Did You Go Tab even more:

If you don't really know how to deal with "Absus4" chord and his equally confusing brothers, just put the mouse cursor over them and you will be shown a helpful chord diagram.

Show us your talent, perform Where Did You Go Tab!

Here you can post a video or audio performance. Tell me more ...
Where can we find your performance? Tell me more ...
Your comment:
Please, log in to post your performance.