Artists by letter: A B C D E F G H I J K L M N O P Q R S T U V W X Y Z 0-9

 
Many Moods Tab
The song is played with a lot of emphasized slides (in the form of "x (x)/y" compared to just "x/y", x and 
y being two notes and "/" representing a slide) and finger vibrato. You might add vibrato whenever you want.

Effect wise:  The guitar is sparkly, but also very fuzzed and distorted. 
I'm pretty sure a weird combination of an octaver and whammy pedal is somewhere in the mix too.


[Intro] (0:00 - 0:22)

Play the first section 3 times and end it with the section that comes after that. Do this twice and 
then play the third section to end the intro.

 |______________________________________2x_____________________________|
 |___________3x___________|
 
e|-------2p4-----2--4/6---|---2-----2--4-4/6-----4-----2h4--2h4--2------|--2---|
B|--2p4-------4-----------|------4------------4-------------------------|-(2)--|
G|------------------------|---------------------------------------------|-(3)--|
D|------------------------|---------------------------------------------|------|
A|------------------------|---------------------------------------------|------|
E|------------------------|---------------------------------------------|------|


[Verse] (0:22 - 0:59)

0:22:
e|-14--14---14-----14--16-(16)/18---14--(11\)--|-14--16--16/18---14/16--14------14---14----------------------|
B|-------------16------------------------------|----------------------------16-------------------------------|
G|---------------------------------------------|------------------------------------------11h13p11h13p11-----|
D|---------------------------------------------|---------------------------------------------------------13--|
A|---------------------------------------------|-------------------------------------------------------------|
E|---------------------------------------------|-------------------------------------------------------------|

0:32:
e|-18/19-21--18~---16--14--(14)/18h21--18--(16)/18---16---14-|-16--18--18/21---16h18---14~-----16---14---14~-|
B|-----------------------------------------------------------|-----------------------------16----------------|
G|-----------------------------------------------------------|-----------------------------------------------|
D|-----------------------------------------------------------|-----------------------------------------------|
A|-----------------------------------------------------------|-----------------------------------------------|
E|-----------------------------------------------------------|-----------------------------------------------|

0:41:
e|--14--14------16--14--16h18~---14~----|----16-18--18/21--16h18--14------14---14----------------------------|
B|----------16--------------------------|-----------------------------16-------------------------------------|
G|--------------------------------------|------------------------------------------13p11h13p11---------------|
D|--------------------------------------|--------------------------------------------------------13----------|
A|--------------------------------------|--------------------------------------------------------------------|
E|--------------------------------------|--------------------------------------------------------------------|

0:51:
e|-18/19-21--18~---16--14--(14)/18h21--18--(16)/18--16--14-|-16--18--18/21---16h18--14~-------14h16p14--14~--|
B|---------------------------------------------------------|-----------------------------16------------------|
G|---------------------------------------------------------|-------------------------------------------------|
D|---------------------------------------------------------|-------------------------------------------------|
A|---------------------------------------------------------|-------------------------------------------------|
E|---------------------------------------------------------|-------------------------------------------------|


[Bridge I] (0:59-1:04)
 
e|---14~---16~---14~---13/14~-----13~-------------------|
B|------------------------------------------------------|
G|------------------------------------------------------|
D|------------------------------------------------------|
A|------------------------------------------------------|
E|------------------------------------------------------|


[Intro Again] (01:05-01:27)

|______________________________________2x_____________________________|
 |___________3x___________|
 
e|-------2p4-----2--4/6---|---2-----2--4-4/6-----4-----2h4--2h4--2------|--2---|
B|--2p4-------4-----------|------4------------4-------------------------|-(2)--|
G|------------------------|---------------------------------------------|-(3)--|
D|------------------------|---------------------------------------------|------|
A|------------------------|---------------------------------------------|------|
E|------------------------|---------------------------------------------|------|


[Half of Verse] (01:28-01:45)

e|-14--14---14-----14--16-(16)/18---14--(11\)--|-14--16--16/18---14/16--14------14---14----------------------|
B|-------------16------------------------------|----------------------------16-------------------------------|
G|---------------------------------------------|------------------------------------------11h13p11h13p11-----|
D|---------------------------------------------|---------------------------------------------------------13--|
A|---------------------------------------------|-------------------------------------------------------------|
E|---------------------------------------------|-------------------------------------------------------------|

e|-18/19-21--18~---16--14--(14)/18h21--18--(16)/18---16---14-|-16--18--18/21---16h18---14~-----16---14---14~-|
B|-----------------------------------------------------------|-----------------------------16----------------|
G|-----------------------------------------------------------|-----------------------------------------------|
D|-----------------------------------------------------------|-----------------------------------------------|
A|-----------------------------------------------------------|-----------------------------------------------|
E|-----------------------------------------------------------|-----------------------------------------------|


[Bridge II] (01:45-02:02). 

This is played on a keyboard/organ and is being played in the background for the Conclusion as well, but you 
can play it here too if you feel like it.

 |_________________________2x___________________________|
 |__________3x___________|
e|---14-----16-----18----|-----14-----11-----14---------|
B|-----------------------|------------------------------|
G|--(11)---(13)---(15)---|----(11)----(9)---(15)--------|
D|-----------------------|------------------------------|
A|-----------------------|------------------------------|
E|-----------------------|------------------------------|


[Conclusion] (2:03-2:44), play a few times:

e|------------------------------------------------------------------------|
B|--11h13--11--------11h13--11--------11h13--11--------11-----------------|
G|-------------13---------------13---------------13--------13---11--------|
D|------------------------------------------------------------------------|
A|------------------------------------------------------------------------|
E|------------------------------------------------------------------------|

e|------------------------------------------------------------------------|
B|--11--11/13---------11--11/13-------11--11/13--------11-----------------|
G|-------------13----------------13--------------13--------13---11--------|
D|------------------------------------------------------------------------|
A|------------------------------------------------------------------------|
E|------------------------------------------------------------------------|

Second Layer:
e|--18/21~--19/18--16--14--18~-----18/21~--19/18--16--14--18~-------------|
B|--------------------------------------------------------------16---14---|
G|------------------------------------------------------------------------|
D|------------------------------------------------------------------------|
A|------------------------------------------------------------------------|
E|------------------------------------------------------------------------|

e|---14-x--16/18----------------------------------------------------------|
B|-----------------16---14------------------------------------------------|
G|------------------------------------------------------------------------|
D|------------------------------------------------------------------------|
A|------------------------------------------------------------------------|
E|------------------------------------------------------------------------|


[Bridge III]
 
e|---14~---14~----16-14-13~-----------------------------|
B|------------------------------------------------------|
G|------------------------------------------------------|
D|------------------------------------------------------|
A|------------------------------------------------------|
E|------------------------------------------------------|


Play and repeat the [Intro] again (2:45-3:42). 

|______________________________________2x_____________________________|
 |___________3x___________|
 
e|-------2p4-----2--4/6---|---2-----2--4-4/6-----4-----2h4--2h4--2------|--2---|
B|--2p4-------4-----------|------4------------4-------------------------|-(2)--|
G|------------------------|---------------------------------------------|-(3)--|
D|------------------------|---------------------------------------------|------|
A|------------------------|---------------------------------------------|------|
E|------------------------|---------------------------------------------|------|

Notice that the second layer of the Conclusion part is added as well after the first repeat.



************************************

| x    Dead note
| (n)  Ghost note
| h    Hammer-on
| p    Pull-off
| /    Slide up
| ~    Vibrato

************************************
 
 
Delicate Steve - Many Moods Tab :: indexed at Ultimate Guitar.
Many Moods tabs @ 911Tabs
People who played Delicate Steve - Many Moods Tab also played these songs by Delicate Steve:
Flyin High Tab, Many Moods, Flyin High

Quick tip, so you can enjoy Many Moods Tab even more:

YourChords.com Guitar Chords and Tabs Archive is currently indexing over 240'000 songs from 21'000+ different artists. And new chords just keep on coming in, so you will surely never run out of them.

Show us your talent, perform Many Moods Tab!

Here you can post a video or audio performance. Tell me more ...
Where can we find your performance? Tell me more ...
Your comment:
Please, log in to post your performance.