Artists by letter: A B C D E F G H I J K L M N O P Q R S T U V W X Y Z 0-9

 
Hidin From Love Tab
Artist: Bryan Adams.
Song: Hidin' From Love.
Album: Bryan Adams.
Year: 1980.

Comments, correction, questions and requests to:
[email protected]

Enjoy this, good people!


Chords:
   E     B     A    C#m
|-----|--7--|--5--|--4--|
|-----|--7--|--5--|--5--|
|--9--|--8--|--4--|--6--|
|--9--|--9--|--7--|--6--|
|--7--|--9--|--7--|--4--|
|-----|--7--|--5--|-----|

Intro:

E - B - A - C#m - B x4.

Verse 1:
E                 B
I'm riding in the middle 
C#m            A
Halfway into you 
E                B
And halfway into something else,
C#m                   A
I dont't know what to do. 
E                      B
You said you'd make it easy, 
C#m                     A
You said you'd take the time, 
        E
But you call it off 
 B                 A
Before I change my mind.

After every A chord there's this chord sequence:
|--------------|
|--------------|
|------------9-|
|--7-6-4-x---9-|
|--7-6-4-x---7-|
|--5-4-2-0-----|

Chorus:
              E     B
'Cause you're not decidin' 
       A    C#m         B
You're only hidin' from love.
                       Hold last bend and strum the bend + the octave (7 fret high e.) 5 times!
|---7------7------7------7--------7--7--7--7--7-|
|--10b12--10b12--10b12--10b12----14-14-14-14-14-|
|-----------------------------------------------|
|-----------------------------------------------|
|-----------------------------------------------|
|-----------------------------------------------|
    E      B
You can't deny it, 
       A    C#m         B
You're only hidin' from love.

Like the last pattern, hold the bends while strumming the octave (12 fret high e.)
|--12-----12-12-12-12--------12-----12-12-12-|
|--12b14--14-14r12-12b14-----12b14--14-14r12-|
|--------------------------------------------|
|--------------------------------------------|
|--------------------------------------------|
|--------------------------------------------|

Verse 2:
E                      B
Well, I've been makin' changes, 
C#m                      A
But you've been changin' too. 
E                        B
You were hopin' love was somethin' else,
C#m                 A
I was hopin' it was you. 
E                      B
You said you'd make it easy, babe
C#m                     A
You said you'd take the time, 
        E
But you call it off 
 B                 A
Before I change my mind.

Chorus:
              E     B
'Cause you're not decidin' 
       A    C#m         B
You're only hidin' from love.

|---7-----7--------7--------7--------7----7-----7-----7----|
|--10b12----10b12----10b12----10b12------10b12-10b12-10b12-|
|----------------------------------------------------------|
|----------------------------------------------------------|
|----------------------------------------------------------|
|----------------------------------------------------------|
    E      B
You can't deny it, 
       A    C#m         B
You're only hidin' from love.

|--------12-------------------------------------|
|--12b14----12b14r12--12b14r12-10--12hb-12hb-12-|
|-----------------------------------------------|
|-----------------------------------------------|
|-----------------------------------------------|
|-----------------------------------------------|

  E           B
I know you're tryin', 
           A    C#m         B
But you're only hidin' from love.

|------------------------------------|
|-----------------12-----------------|
|--11-9-11--11b13----13r11-9-11----9-|
|-------------------------------11---|
|------------------------------------|
|------------------------------------|
    E          B
You say you're shy, 
           A    C#m         B
But you're only hidin' from love.

Bend up to the octave, hold the bend and strum it 10 times. After that, play the last 3 notes!
|--9-----|      |--------|
|--12b14-|      |--10-9--|
|--------| 10x  |------9-|
|--------|      |--------|
|--------|      |--------|
|--------|      |--------|

Small interlude:

E - B - A - C#m - B x1.

Solo:

E - B - A - C#m - B x2.

Guitar Solo:
|---------------------------------------------|
|--s9---9-7--9-9-7---7------------------------|
|----------9-------9---9-8--8-8-9-11-9--11b13-|
|---------------------------------------------|
|---------------------------------------------|
|---------------------------------------------|

|---9-9-9--------9-9------12------12------12------12------12----------|
|---9-9-9-12b14--9-9-12b14---12b14---12b14---12b14---12b14---12b14r12-|
|---------------------------------------------------------------------|
|---------------------------------------------------------------------|
|---------------------------------------------------------------------|
|---------------------------------------------------------------------|

Chorus:
              E     B
'Cause you're not decidin' 
       A    C#m         B
You're only hidin' from love.

|---------------------------------------------|
|--12b14r12-10-12--12b14r12-10-12-12-12b14-12-|
|---------------------------------------------|
|---------------------------------------------|
|---------------------------------------------|
|---------------------------------------------|

    E      B
You can't deny it, 
       A    C#m         B
You're only hidin' from love.
  Hold bend!
|-------19-19-19-19-19------19-19-19-------19-19-------|
|--19b21---------------19b21---------19b21-------19b21-|
|------------------------------------------------------|
|------------------------------------------------------|
|------------------------------------------------------|
|------------------------------------------------------|

  E           B
I know you're tryin', 
           A    C#m         B
But you're only hidin' from love.

|--14-12-11--11-11-12-14-12-14b16-|
|---------------------------------|
|---------------------------------|
|---------------------------------|
|---------------------------------|
|---------------------------------|
    E          B
You say you're shy, 
           A    C#m         B
But you're only hidin' from love.

|---9----|     |--------------------|
|--12b14-|     |---12b14r12--10-9---|
|--------| x11 |------------------9-|
|--------|     |--------------------|
|--------|     |--------------------|
|--------|     |--------------------|

Ending:

|---------------------------------------|
|---------------------------------------|
|------9-11b13r11-9-11--11b13r11-9-11-9-|
|--s11----------------------------------|
|---------------------------------------|
|---------------------------------------|

Repeat chords from chorus 'till fade-out!

Lyrics found at:
http://www.azlyrics.com/lyrics/bryanadams/hidinfromlove.html


 
 
Bryan Adams - Hidin From Love Tab :: indexed at Ultimate Guitar.
Hidin From Love tabs @ 911Tabs

About the artist behind Hidin From Love Tab:

Bryan Adams OC, OBC,[1] (born Bryan Guy Adams on November 5, 1959)[2][3][4] is a Canadian rock singer-songwriter, musician and photographer. Some of his best-known albums are Reckless, 18 til I Die, and Waking Up the Neighbours. Adams has been nominated three times for Academy Awards for his songwriting in films.[5]

Indexed at Wikipedia.

Show us your talent, perform Hidin From Love Tab!

Here you can post a video or audio performance. Tell me more ...
Where can we find your performance? Tell me more ...
Your comment:
Please, log in to post your performance.