Artists by letter: A B C D E F G H I J K L M N O P Q R S T U V W X Y Z 0-9

 
The E Street Shuffle Tab
-------------------------------------------------------------------------------
                             E Street Shuffle-Bruce Springsteen
-------------------------------------------------------------------------------
Tabbed by:Nick V.
E-mail:

Tuning:EADGBE

Am:x02210
Am7:x02213
Em:x79987
Em7:x79787
Dm:x57765
G:x10121212x or 3x000x
G7:3x5433
G#7:4x6544

Intro/Horns:

Am7 Am Em Em7 Dm G C

Fig. #1
e|--------10/12---------12-10------------------------------------------------|
B|-8--8---10/12--8--8---12-10------------------------------------------------|
G|-9--9----------9--9--------------------------------------------------------|
D|-10-10---------10-10-------------------------------------------------------|
A|---------------------------------------------------------------------------|
E|---------------------------------------------------------------------------|

e|--------10/12-----------10--8--10--8---------------------------------------|
B|-8--8---10/12---8--8----10--8--10--8---------------------------------------|
G|-9-9------------9--9-------------------------------------------------------|
D|-8-10----------10--10------------------------------------------------------|
A|---------------------------------------------------------------------------|
E|---------------------------------------------------------------------------|

Fig. #1
Sparks fly on E Street when the boy prophets walk it handsome and hot

Fig. #1
All the little girls' souls grow weak when the man-child gives them a double shot

F
The schoolboy bops pull out all the stops on a Friday night
      C
The teenage tramps in skin-tight pants do the E Street dance and everything's all right
     G7
Them kids down there are either dancing or hooked up in a scuffle
             Am                          F
Dressed in snakeskin suits backed with Detroit muscle
         G#7       G7              Fig. #1
They're doing the E Street Shuffle

Fig. #1
Now, those E Street brats in twilight dual flashlight phantoms in full star stream

Fig. #1
Down fire trails on silver nights with blonde girls playing sweet sixteen

Fig. #1
The newsboys say the heat's been bad since Power 13 gave a trooper all he had in a summer scuffle

Fig. #1
And Power's girl, Little Angel, been on the corner keeping those crazy boys out of trouble

G7                                              
Little Angel steps the shuffle like she ain't got no brains
      Am                            F
She's deaf in combat down on Lover's Lane
    G#7         G7                    Fig. #1
She drives all them local boys insane
           Fig. #1
Yes, she does

Fig. #2

Am   G  Am  Am  G  Am  Dm  Em Am
e|-0-0--x--0--0-0--x--0---5---7--0-----------------------------------------------------|
B|-1-1--0--1--1-1--0--1---6---8--1-----------------------------------------------------|
G|-2-2--0--2--2-2--0--2---7---9--2-----------------------------------------------------|
D|-2-2--0--2--2-2--0--2---7---9--2-----------------------------------------------------|
A|-0-0--x--0--0-0--x--0---5---7--0-----------------------------------------------------|
E|-x-x--3--x--x-x--3--x---x---x--x-----------------------------------------------------|

Am       G    Am   Am        G   Am   Dm     Em        Am
Little Angel says "oh, oh, oh, oh, oh, oh, oh, oh, oh Everybody form a line
         G  Am           G  Am      Dm    Em           Am   
Oh,oh, oh, oh oh, oh oh, oh, oh, oh Everybody form a line

E7#9          Dm  G
e|-------------------5---x-----------------------------------------------------|
B|-7-7--7-7---7/-----6--12-----------------------------------------------------|
G|-6-6--6-6---6/-----7--12-----------------------------------------------------|
D|-5-5--5-5---5/-----7--12-----------------------------------------------------|
A|-6-6--6-6---6/-----5--10-----------------------------------------------------|
E|-------------------x--x------------------------------------------------------|

Fig. #1
Well, the sparks fly on E Street when the boy prophets walk it handsome and hot

Fig. #1
All them little girls' souls grow weak when the man-child gives them a double shot

Fig. #1
Little Angel hangs out at Easy Joe's

Fig. #1
It's a club where all the riot squad goes when they're cashing in for a cheap hustle

Fig. #1
But them boys are still on the corner loose and doing that lazy E Street Shuffle

G7
As them sweet summer nights turn into summer dreams
Am                                            F
Little Angel picks up Power and he slips on his jeans
G#7          G7                    Fig. #1
And they move on down to the scene

All the kids are there

Fig. #4
e|-6-----6---------------------------------------------------------------------|
B|-6-----7---------------------------------------------------------------------|
G|-6-----6---------------------------------------------------------------------|
D|-6-----8---------------------------------------------------------------------|
A|-8-----6---------------------------------------------------------------------|
E|-6-----0---------------------------------------------------------------------|

Fig. #5 (w/Fig. #4)
e|------------------------------------------------------------------------------|
B|----8-10----8-10---10-8-------------------------------------------------------|
G|-9-------9---------------9-7---------7----------------------------------------|
D|-------------------------------7-10-------------------------------------------|
A|------------------------------------------------------------------------------|
E|------------------------------------------------------------------------------|

Outro:

e|-7-7-7--12-12--------------------------------------------------------------|
B|-5-5-5--10-10--------------------------------------------------------------|
G|-5-5-5--10-10--------------------------------------------------------------|
D|---------------------------------------------------------------------------|
A|---------------------------------------------------------------------------|
E|---------------------------------------------------------------------------|

Fig. #6 (w/Fig. #4)
e|------------------------------------------------------------------------------|
B|----8-10----8-10---10-8-------------------------------------------------------|
G|-9-------9---------------9-7---------7----------------------------------------|
D|-------------------------------7-10-------------------------------------------|
A|------------------------------------------------------------------------------|
E|------------------------------------------------------------------------------|

To fade

Questions, comments, insults...BlindTerry333
 
 
Bruce Springsteen - The E Street Shuffle Tab :: indexed at Ultimate Guitar.
The E Street Shuffle tabs @ 911Tabs

About the artist behind The E Street Shuffle Tab:

Bruce Frederick Joseph Springsteen (born September 23, 1949) is an American songwriter, singer and guitarist. He has recorded and toured with the E Street Band. Springsteen is widely known for his brand of heartland rock infused with pop hooks, poetic lyrics, and Americana sentiments centered around his native New Jersey. His eloquence in expressing ordinary, everyday problems has earned him numerous awards, including eighteen Grammy Awards and an Academy Award, along with a notoriously dedicated and devoted global fan base. His most famous albums, Born to Run and Born in the U.S.A., epitomize his penchant for finding grandeur in the struggles of daily life. He has sold over 65 million albums in the U.S.[1]

Springsteen's lyrics often concern men and women struggling to make ends meet. He has gradually become identified with progressive politics. Springsteen is also noted for his support of various relief and rebuilding efforts in New Jersey and elsewhere, and for his response to the September 11, 2001 attacks, on which his album The Rising reflects.

Springsteen's recordings have tended to alternate between commercially accessible rock albums and somber folk-oriented works. Much of his iconic status stems from the concerts and marathon shows in which he and the E Street Band present intense ballads, rousing anthems, and party rock and roll songs, amongst which Springsteen intersperses long, whimsical or deeply emotional stories.

Springsteen has long had the nickname "The Boss", a term which he was initially reported to hate but now seems to have come to terms with, as he sometimes jokingly refers to himself as such on stage. The nickname originated when a young Springsteen, playing club gigs with a band in the 1960s, took on the task of collecting the band's nightly pay and distributing it amongst his bandmates.[2]

Indexed at Wikipedia.

Show us your talent, perform The E Street Shuffle Tab!

Here you can post a video or audio performance. Tell me more ...
Where can we find your performance? Tell me more ...
Your comment:
Please, log in to post your performance.