Artists by letter: A B C D E F G H I J K L M N O P Q R S T U V W X Y Z 0-9

 
Seven Angels Chords
-------------------------------------------------------------------------------
                             Seven Angels-Bruce Springsteen
-------------------------------------------------------------------------------
Tabbed by:Nick V.
E-mail:[email protected]


From 1998's "Tracks".

Intro:

     E     D     E  (drums)     
e|---------------------------------------------------------------------------|
B|-9-9-9--7-7-7--9---------9-9-9--7-7-7--9-----------------------------------|
G|-9-9-9--7-7-7--9---------9-9-9--7-7-7--9---0h2p0---------------------------|
D|-9-9-9--7-7-7--9---------9-9-9--7-7-7--9----------2------------------------|
A|---------------------------------------------------------------------------|
E|---------------------------------------------------------------------------|
                                                (drums)
e|-------------------<12>----------------------------------------------------|
B|-9-9-9--7-7-7--9-------------9-9-9--7-7-7--9-------------------------------|
G|-9-9-9--7-7-7--9-------------9-9-9--7-7-7--9-------------------------------|
D|-9-9-9--7-7-7--9-------------9-9-9--7-7-7--9-------------------------------|
A|---------------------------------------------------------------------------|
E|---------------------------------------------------------------------------|

Verse:

E D E
Seven angels got my number, since I fell in love with you
E D E
Seven angels got my number, they're all telling me what to do
A                           A/G#
First angel says "Go on and love her"
F#m                          A/G#
Second angel says "Ain't you tired of being alone?"
A                        A/G#
Third angel says "Do the right thing, meat"
F#m                            E
Fourth angel says "Check that other little angel walkin' on down the street" 


E D E 
Seven angels got my number since I fell in love with you
E D E
Seven angels got my number, they're all telling me what to do
A                        A/G#      F#m                    A/G#
Fifth angel says, "Don't worry love's waitin' 'round the corner for you, son"
A                            A/G#   F#m                  A/G#
Sixth angel says "You better hurry, it don't take long for the good to get gone"
A                    A/G#            E
Walkin' on wings all sexy and blue, seventh angel says I'm a fool

E D E (x4)


Solo (listen for timing)
e|----------------------10---------------------------------------------------|
B|-----------------10b-------10b--10--8-------10--10p8-----------------------|
G|-2b--0h2p0-----------------------------9-------------9--9------------------|
D|------------2--------------------------------------------------------------|
A|---------------------------------------------------------------------------|
E|---------------------------------------------------------------------------|

      A                                       E                         A
I got seven angels calling on my pride, seven devils crawling around inside
                                         E
Seven angels tellin' me where to turn, one kiss and my soul wanna burn 

e|---------------------------------------------------------------------------|
B|-----------3--2--3---------------------------------------------------------|
G|-2--0------4--2--4----2--0-------------------------------------------------|
D|-------2--------------------2----------------------------------------------|
A|---------------------------------------------------------------------------|
E|---------------------------------------------------------------------------|

E D E (x2)

E D E
Seven angels got my number since I fell in love with you 
E D E
Seven angels got my number, they're all telling me what to do
    A                  A/G#
The earth's so lonely, sad and blue
    F#m                A/G#
And without love, your soul's dyin'
A                   A/G#
Sixth angel says to believe you 
F#m                 A/G#
When you say you'll never leave me cryin'
E
Seventh angel says you're lying

e|------10------------------------------------------------------------------|
B|-10b-------10b--10b--8-8--------------------------------------------------|
G|--------------------------9-----------------------------------------------|
D|--------------------------------------------------------------------------|
A|--------------------------------------------------------------------------|
E|--------------------------------------------------------------------------|

E D E (till fade)

Questions, comments, insults-BlindTerry333
 
 
Bruce Springsteen - Seven Angels Chords :: indexed at Ultimate Guitar.
Seven Angels tabs @ 911Tabs

About the artist behind Seven Angels Chords:

Bruce Frederick Joseph Springsteen (born September 23, 1949) is an American songwriter, singer and guitarist. He has recorded and toured with the E Street Band. Springsteen is widely known for his brand of heartland rock infused with pop hooks, poetic lyrics, and Americana sentiments centered around his native New Jersey. His eloquence in expressing ordinary, everyday problems has earned him numerous awards, including eighteen Grammy Awards and an Academy Award, along with a notoriously dedicated and devoted global fan base. His most famous albums, Born to Run and Born in the U.S.A., epitomize his penchant for finding grandeur in the struggles of daily life. He has sold over 65 million albums in the U.S.[1]

Springsteen's lyrics often concern men and women struggling to make ends meet. He has gradually become identified with progressive politics. Springsteen is also noted for his support of various relief and rebuilding efforts in New Jersey and elsewhere, and for his response to the September 11, 2001 attacks, on which his album The Rising reflects.

Springsteen's recordings have tended to alternate between commercially accessible rock albums and somber folk-oriented works. Much of his iconic status stems from the concerts and marathon shows in which he and the E Street Band present intense ballads, rousing anthems, and party rock and roll songs, amongst which Springsteen intersperses long, whimsical or deeply emotional stories.

Springsteen has long had the nickname "The Boss", a term which he was initially reported to hate but now seems to have come to terms with, as he sometimes jokingly refers to himself as such on stage. The nickname originated when a young Springsteen, playing club gigs with a band in the 1960s, took on the task of collecting the band's nightly pay and distributing it amongst his bandmates.[2]

Indexed at Wikipedia.

Show us your talent, perform Seven Angels Chords!

Here you can post a video or audio performance. Tell me more ...
Where can we find your performance? Tell me more ...
Your comment:
Please, log in to post your performance.