Artists by letter: A B C D E F G H I J K L M N O P Q R S T U V W X Y Z 0-9

 
Dancing In The Dark Chords
-------------------------------------------------------------------------------
                          Dancing In The Dark-Bruce Springsteen
-------------------------------------------------------------------------------
Tabbed by:Nick V.
E-mail:BlindTerry333
Tuning:EADGBE

Capo IV

G Em  G Em  
Keyboard Chords(listen for timing)
e|-x--x--x--x--x--x--x--x--x-----------------------------------------------------------|
B|-0--0--0--0--0--0--0--0--0-----------------------------------------------------------|
G|-0--2--4--0--2--4--2--0--0-----------------------------------------------------------|
D|-0--0--0--0--0--0--0--0--0-----------------------------------------------------------|
A|-x--x--x--x--x--x--x--x--x-----------------------------------------------------------|
E|-3--3--3--3--3--3--3--3--3-----------------------------------------------------------|
G               Em    G
I get up in the evening
                Em         G
and I ain't got nothing to say
                   Em
I come home in the morning
  G         Em               C
I go to bed feeling the same way
                    Am   C
I ain't nothing but tired
             Am                     G
Man, I'm just tired and bored with myself
          Em  G         Em                D
Hey there baby, I could use just a little help
D             
You can't start a fire
                                 C
You can't start a fire without a spark
               Am   C
This gun's for hire
                   Am             G
Even if we're just dancing in the dark
G                     Em    G
Message keeps getting clearer
                   Em                G
Radio's on and I'm moving 'round the place
                       Em
I check my look in the mirror
  G               Em                   C
I wanna change my clothes, my hair, my face
                    Am    C
Man. I ain't getting nowhere
       Am                    G
Just living in a dump like this
                            Em      G
There's something happening somewhere
            Em              D
baby I just know that there is
D             
You can't start a fire
                                 C
You can't start a fire without a spark
               Am   C
This gun's for hire
                   Am             G
Even if we're just dancing in the dark
Bridge:
Em                     G
You sit around getting older
C                       D                 Em
there's a joke here somewhere and it's on me
                             G
I'll shake this world off my shoulders
C                 D
come on baby this laugh's on me
G                           Em  G
Stay on the streets of this town
               Em               G
And they'll be carving you up alright
                        Em   G
They say you gotta stay hungry
              Em                    C
Hey baby, I'm just about starving tonight
                   Am    C
I'm dying for some action
                           Am                        G
I'm sick of sitting 'round here trying to write this book
                Em    G
I need a love reaction
                 Em             D
Come on now baby gimme just one look
D                                                          C
You can't start a fire sitting 'round crying over a broken heart
               Am   C
This gun's for hire
                   Am             D
Even if we're just dancing in the dark
                                                                 C
You can't start a fire worrying about your little world falling apart
               Am  C
This gun's for hire
                   Am             G   C
Even if we're just dancing in the dark
                   Am             G   C
Even if we're just dancing in the dark  
                   Am             G   C
Even if we're just dancing in the dark 
Hey,baby!

Sax Solo
e|---------------------------------------------------------------------------|
B|------------------0-3-0--3--3/5--5/8-5-------------------------------------|
G|-----0-4------0-4--------------------------------2-4-----------------------|
D|-0-2------0-2-----------------------------2-2-4----------------------------|
A|---------------------------------------------------------------------------|
E|---------------------------------------------------------------------------|

e|---------------------------------------------------------------------------|
B|-3/5-3-3--3/5-3--------3/5-3-3--3-3/5-3----------5-3-----5-3------5-3------|
G|----------------4--2---------------------4-2-0------4-2-----4-2------4-2---|
D|---------------------------------------------------------------------------|
A|---------------------------------------------------------------------------|
E|---------------------------------------------------------------------------|
                                                           (fade)
e|------------------3----3---------------------------------------------------|
B|---------3-5-3-5----5----5-------------------------------------------------|
G|-2-4-2-4--------------------2p0-2-2-2p0-2-4---2p0-2-4-2-0-2-4--------------|
D|---------------------------------------------------------------------------|
A|---------------------------------------------------------------------------|
E|---------------------------------------------------------------------------|

Questions, comments, insults...BlindTerry333
 
 
Bruce Springsteen - Dancing In The Dark Chords :: indexed at Ultimate Guitar.
Dancing In The Dark tabs @ 911Tabs

About the artist behind Dancing In The Dark Chords:

Bruce Frederick Joseph Springsteen (born September 23, 1949) is an American songwriter, singer and guitarist. He has recorded and toured with the E Street Band. Springsteen is widely known for his brand of heartland rock infused with pop hooks, poetic lyrics, and Americana sentiments centered around his native New Jersey. His eloquence in expressing ordinary, everyday problems has earned him numerous awards, including eighteen Grammy Awards and an Academy Award, along with a notoriously dedicated and devoted global fan base. His most famous albums, Born to Run and Born in the U.S.A., epitomize his penchant for finding grandeur in the struggles of daily life. He has sold over 65 million albums in the U.S.[1]

Springsteen's lyrics often concern men and women struggling to make ends meet. He has gradually become identified with progressive politics. Springsteen is also noted for his support of various relief and rebuilding efforts in New Jersey and elsewhere, and for his response to the September 11, 2001 attacks, on which his album The Rising reflects.

Springsteen's recordings have tended to alternate between commercially accessible rock albums and somber folk-oriented works. Much of his iconic status stems from the concerts and marathon shows in which he and the E Street Band present intense ballads, rousing anthems, and party rock and roll songs, amongst which Springsteen intersperses long, whimsical or deeply emotional stories.

Springsteen has long had the nickname "The Boss", a term which he was initially reported to hate but now seems to have come to terms with, as he sometimes jokingly refers to himself as such on stage. The nickname originated when a young Springsteen, playing club gigs with a band in the 1960s, took on the task of collecting the band's nightly pay and distributing it amongst his bandmates.[2]

Indexed at Wikipedia.

Show us your talent, perform Dancing In The Dark Chords!

Here you can post a video or audio performance. Tell me more ...
Where can we find your performance? Tell me more ...
Your comment:
Please, log in to post your performance.