Artists by letter: A B C D E F G H I J K L M N O P Q R S T U V W X Y Z 0-9

 
Cadillac Ranch Tab
CADILLAC RANCH

As recorded by Bruce Springsteen & The E Street Band
(From the 1980 Double Album THE RIVER)

Words and Music by Bruce Springsteen

Transcribed by Slowhand

      

Gtr I (E A D G B E) - 'Bruce Springsteen - Electric Guitar'
Gtr II (E A D G B E) - 'Steven Van Zandt - Electric Guitar'
Gtr III (E A D G B E) - 'Steven Van Zandt - Electric Guitar'


 Intro
  Q=128
  N.C.                 G
 4/4
  Gtr I
  W          H    Q  E  E     E Q  E   +E  E E E     +E  E E E Q  E E
|----------|------------7-|-----7--7---(7)-7-7-7-|---(7)-7-7-7-7--7-7---|
|----------|------------8-|-----8--8---(8)-8-8-8-|---(8)-8-8-8-8--8-8---|
|----------|------------7-|-----7--7---(7)-7-7-7-|---(7)-7-7-7-7--7-7---|
|----------|--------------|----------------------|----------------------|
|----------|--------------|----------------------|----------------------|
|----------|--------------|----------------------|----------------------|
|
| Gtr II
| W          H    Q  E  E   a E Q  E a  E  E E E   a  E  E E E Q  Q
|----------|--------------|----------------------|----------------------|
|----------|--------------|----------------------|----------------------|
|----------|--------------|-----7--7-------7-7-7-|-------7-9---7--7-----|
|----------|--------------|-8s9------8h=9--------|-8h=9------9----------|
|----------|-----------10-|----------------------|----------------------|
|----------|--------------|----------------------|----------------------|


  C               G                                                      C
  E Q  E E Q  E   E E E E Q  E E     +E  E E E   E Q  E     E E E E Q  E S S
|-8-8--8-8-8--8-|-7-7-7---7--7-7-|---(7)-7-7-7---7-7--7-|---7-7-7-7-7--7-8-8-|
|-8-8--8-8-8--8-|-8-8-8---8--8-8-|---(8)-8-8-8---8-8--8-|---8-8-8-8-8--8-8-8-|
|-9-9--9-9-9--9-|-7-7-7---7--7-7-|---(7)-7-7-7---7-7--7-|---7-7-7-7-7--7-9-9-|
|---------------|----------------|----------------------|--------------------|
|---------------|----------------|----------------------|--------------------|
|---------------|----------------|----------------------|--------------------|
|
| E Q  E E Q  E   E E E E Q  E E   a  E  E E E a E Q  E   a E E E E Q  Q
|---------------|----------------|----------------------|--------------------|
|---8--8---8--8-|----------------|----------------------|--------------------|
|-9------9------|-9-7-7---7--7-7-|-------7-7-7-----7--7-|-----7-9---7--7-----|
|---------------|-------9--------|-8h=9--------8h9------|-8h9-----9----------|
|---------------|----------------|----------------------|--------------------|
|---------------|----------------|----------------------|--------------------|


                        D             G
    E Q   E   E E E E    E  E  Q       E E E E      E    Q  E   +E    E E E
|---8-8---8---8-8-8-8-|-10-10-10-------7-7-7-7-|----7----7--7---(7)---7-7-7-|
|---8-8---8---8-8-8-8-|-10-10-10-------8-8-8-8-|----8----8--8---(8)---8-8-8-|
|---9-9---9---9-9-9-9-|-11-11-11-------7-7-7-7-|----7----7--7---(7)---7-7-7-|
|---------------------|------------------------|----------------------------|
|---------------------|------------------------|----------------------------|
|---------------------|------------------------|----------------------------|
|
| a E E E E a E E E E    E  E  E    E  E E Q     a  E    Q  E a  E    E E E
|---------------------|------------------------|----------------------------|
|-----8-8-8-----------|-10-10-10b12---10p8-----|----------------------------|
|-7h9-------7h9-7-7-7-|------------------------|---------7--7---------7-7-7-|
|---------------------|------------------------|-8s=9---------8h=9----------|
|---------------------|------------------------|----------------------------|
|---------------------|------------------------|----------------------------|
|
|                                              Gtr III
|   W                    W                          H            H
|---------------------|------------------------|----------------------------|
|---------------------|------------------------|---10b12--------10b12-------|
|---------------------|------------------------|----------------------------|
|---------------------|------------------------|----------------------------|
|---------------------|------------------------|----------------------------|
|---------------------|------------------------|----------------------------|


                                  C
    +E    E E E  Q          E E    E  Q   E  E       Q    E
|---(7)---7-7-7--7----------7-7-|--8--8---8--8-------8----8-|
|---(8)---8-8-8--8----------8-8-|--8--8---8--8-------8----8-|
|---(7)---7-7-7--7----------7-7-|--9--9---9--9-------9----9-|
|-------------------------------|---------------------------|
|-------------------------------|---------------------------|
|-------------------------------|---------------------------|
|
| a  E    E E E  Q          Q      E  Q   E  E       Q    E
|-------------------------------|---------------------------|
|-------------------------------|-----8---8----------8----8-|
|---------7-9----7----------7---|--9---------9--------------|
|-8h=9--------9-----------------|---------------------------|
|-------------------------------|---------------------------|
|-------------------------------|---------------------------|
|
|    Q      Q    E      +E  E E   +Q    E E  E      +E  E E
|-----------7-------------------|---------------------------|
|---10b12-------10pb12r(10)-8-8-|-(8)---8-8-10pb12r(10)-8-8-|
|-------------------------------|---------------------------|
|-------------------------------|---------------------------|
|-------------------------------|---------------------------|
|-------------------------------|---------------------------|


  G
   E       E  E  E       Q    E  E
|--7-------7--7----------7----7--7-|
|--8-------8--8----------8----8--8-|
|--7-------7--7----------7----7--7-|
|----------------------------------|
|----------------------------------|
|----------------------------------|
|
|  E       E  E  E       Q    E  E
|----------------------------------|
|----------------------------------|
|--9-------7--7----------7----7--7-|
|----------------9-----------------|
|----------------------------------|
|----------------------------------|
|
|  E      +E  E  E      +Q    E  E
|----------------------------------|
|-10pb12r(10)-8-10b12==(10)r----10-|
|----------------------------------|
|----------------------------------|
|----------------------------------|
|----------------------------------|


                                                               C
     +E  E E E    Q      E E      E    E  E    E  Q          E E
|----(7)-7-7-7----7------7-7-|----7----7--7----7--7----------7-8-|
|----(8)-8-8-8----8------8-8-|----8----8--8----8--8----------8-8-|
|----(7)-7-7-7----7------7-7-|----7----7--7----7--7----------7-9-|
|----------------------------|-----------------------------------|
|----------------------------|-----------------------------------|
|----------------------------|-----------------------------------|
|
| a   E  E E E a  E    Q   E   a  E    E  E    E  Q          Q
|----------------------------|-----------------------------------|
|----------------------------|-----------------------------------|
|--------7-7-7---------7---7-|---------7--9-------7----------7---|
|-8h==9--------8h=9----------|-8h=9------------9-----------------|
|----------------------------|-----------------------------------|
|----------------------------|-----------------------------------|
|
|    +Q    Q      Q      Q        Q       Q       E      +E  E E
|----------7-------------7---|-----------------------------------|
|---(10)---------10b12-------|---10b12---10b12---10pb12r(10)-8-8-|
|----------------------------|-----------------------------------|
|----------------------------|-----------------------------------|
|----------------------------|-----------------------------------|
|----------------------------|-----------------------------------|


     E  Q   E    E       E  E  E
|----8--8---8----8-------8--8--8-|
|----8--8---8----8-------8--8--8-|
|----9--9---9----9-------9--9--9-|
|--------------------------------|
|--------------------------------|
|--------------------------------|
|
| a  E  E E E a  E       E  E  E
|--------------------------------|
|-------8-8-8--------------------|
|-7h=9--------7h=9-------7--7--7-|
|--------------------------------|
|--------------------------------|
|--------------------------------|
|
|   +E  E E E    E      +E  E  E
|--------------------------------|
|---(8)-8-8-8---10pb12r(10)-8-10-|
|--------------------------------|
|--------------------------------|
|--------------------------------|
|--------------------------------|


  C                    G/D
                                Gt
   E       E   Q        E E E E
|-10------10--10--------7-7-7-7-||
|-10------10--10--------8-8-8-8-||
|-11------11--11--------7-7-7-7-||
|-------------------------------||
|-------------------------------||
|-------------------------------||
|
|  E       E   E     E  E E Q
|-------------------------------||
|-10------10--10b12----10p8-----||
|-------------------------------||
|-------------------------------||
|-------------------------------||
|-------------------------------||
|
|  E      +E   E     E  Q   Q
|-------------------------------||
|-10pb12r(10)-10b12r10--8-------||
|-------------------------------||
|-------------------------------||
|-------------------------------||
|-------------------------------||


 1st Verse
  G5                              D5
 r I
  E e E E Q  Q    E e E E Q  Q    E e E E Q  Q
|---------------|---------------|---------------|
|---------------|---------------|---------------|
|---------------|---------------|-5-5---5-5--5--|
|-5-5---5-5--5--|-5-5---5-5--5--|-5-5---5-5--5--|
|-5-5---5-5--5--|-5-5---5-5--5--|-3-3---3-3--3--|
|-3-3---3-3--3--|-3-3---3-3--3--|---------------|
|
| W               W               W
|---------------|---------------|---------------|
|---------------|---------------|---------------|
|---------------|---------------|---------------|
|---------------|---------------|---------------|
|---------------|---------------|---------------|
|---------------|---------------|---------------|
|
| W               W               W
|---------------|---------------|---------------|
|---------------|---------------|---------------|
|---------------|---------------|---------------|
|---------------|---------------|---------------|
|---------------|---------------|---------------|
|---------------|---------------|---------------|


  G5                                              C5
  E e E E Q  Q    E e E E Q  Q    E e E E Q  Q    E e E E Q  Q
|---------------|---------------|---------------|---------------|
|---------------|---------------|---------------|---------------|
|---------------|---------------|---------------|-5-5---5-5--5--|
|-5-5---5-5--5--|-5-5---5-5--5--|-5-5---5-5--5--|-5-5---5-5--5--|
|-5-5---5-5--5--|-5-5---5-5--5--|-5-5---5-5--5--|-3-3---3-3--3--|
|-3-3---3-3--3--|-3-3---3-3--3--|-3-3---3-3--3--|---------------|


                   2nd & 3rd Verses
  D5      G5        G5                              D5
  E e E E Q  Q      E e E E Q  Q    E e E E Q  Q    E e E E Q  Q
|---------------||----------------|---------------|---------------|
|---------------||o---------------|---------------|---------------|
|-7-7---7-------||----------------|---------------|-5-5---5-5--5--|
|-7-7---7-5--5--||--5-5---5-5--5--|-5-5---5-5--5--|-5-5---5-5--5--|
|-5-5---5-5--5--||o-5-5---5-5--5--|-5-5---5-5--5--|-3-3---3-3--3--|
|---------3--3--||--3-3---3-3--3--|-3-3---3-3--3--|---------------|


  G5                                              D5
  E e E E Q  Q    E e E E Q  Q    E e E E Q  Q    E e E E Q  Q
|---------------|---------------|---------------|---------------|
|---------------|---------------|---------------|---------------|
|---------------|---------------|---------------|-5-5---5-5--5--|
|-5-5---5-5--5--|-5-5---5-5--5--|-5-5---5-5--5--|-5-5---5-5--5--|
|-5-5---5-5--5--|-5-5---5-5--5--|-5-5---5-5--5--|-3-3---3-3--3--|
|-3-3---3-3--3--|-3-3---3-3--3--|-3-3---3-3--3--|---------------|


                  Chorus
  D5      G5       G                                   C
  E e E E Q  Q     E E E E E E E E   E E E E E E E E   E E E E E E E E
|---------------||-3-3-3-3-3-3-3-3-|-3-3-3-3-3-3-3-3-|-----------------|
|---------------||-3-3-3-3-3-3-3-3-|-3-3-3-3-3-3-3-3-|-5-5-5-5-5-5-5-5-|
|-7-7---7-------||-4-4-4-4-4-4-4-4-|-4-4-4-4-4-4-4-4-|-5-5-5-5-5-5-5-5-|
|-7-7---7-5--5--||-5-5-5-5-5-5-5-5-|-5-5-5-5-5-5-5-5-|-5-5-5-5-5-5-5-5-|
|-5-5---5-5--5--||-5-5-5-5-5-5-5-5-|-5-5-5-5-5-5-5-5-|-3-3-3-3-3-3-3-3-|
|---------3--3--||-3-3-3-3-3-3-3-3-|-3-3-3-3-3-3-3-3-|-----------------|


  G                                                   C
  E E E E E E E E   E E E E E E E E   Q  Q  E E E E   E E E E E E E E
|-3-3-3-3-3-3-3-3-|-3-3-3-3-3-3-3-3-|-3--3--3-3-3-3-|-----------------|
|-3-3-3-3-3-3-3-3-|-3-3-3-3-3-3-3-3-|-3--3--3-3-3-3-|-5-5-5-5-5-5-5-5-|
|-4-4-4-4-4-4-4-4-|-4-4-4-4-4-4-4-4-|-4--4--4-4-4-4-|-5-5-5-5-5-5-5-5-|
|-5-5-5-5-5-5-5-5-|-5-5-5-5-5-5-5-5-|-5--5--5-5-5-5-|-5-5-5-5-5-5-5-5-|
|-5-5-5-5-5-5-5-5-|-5-5-5-5-5-5-5-5-|-5--5--5-5-5-5-|-3-3-3-3-3-3-3-3-|
|-3-3-3-3-3-3-3-3-|-3-3-3-3-3-3-3-3-|-3--3--3-3-3-3-|-----------------|


  1.               2.
  D       G         D       G
  E E E E Q  Q      E E E E Q  Q
|---------3--3---||---------3--3--||
|-7-7-7-7-3--3--o||-7-7-7-7-3--3--||
|-7-7-7-7-4--4---||-7-7-7-7-4--4--||
|-7-7-7-7-5--5---||-7-7-7-7-5--5--||
|-5-5-5-5-5--5--o||-5-5-5-5-5--5--||
|---------3--3---||---------3--3--||
|
|                                 Gt
| W                 W
|----------------||---------------||
|---------------o||---------------||
|----------------||---------------||
|----------------||---------------||
|---------------o||---------------||
|----------------||---------------||


 Guitar Solo
  G
   E       Q    E +E       E  E E   +E    E E E  Q          E E
|--7-------7----7-(7)------7--7-7-|-(7)---7-7-7--7----------7-7-|
|--8-------8----8-(8)------8--8-8-|-(8)---8-8-8--8----------8-8-|
|--7-------7----7-(7)------7--7-7-|-(7)---7-7-7--7----------7-7-|
|---------------------------------|-----------------------------|
|---------------------------------|-----------------------------|
|---------------------------------|-----------------------------|
|
|r II
|                                    ~~~~~
|  E      +E  E E  E      +E  E E    Q      E E  E      +E  E E
|---------------------------------|---------7-7-----------------|
|-10pb12r(10)-8-8-10pb12r(10)-8-8-|-10b12-------10pb12r(10)-8-8-|
|---------------------------------|-----------------------------|
|---------------------------------|-----------------------------|
|---------------------------------|-----------------------------|
|---------------------------------|-----------------------------|


  C
   E  Q   E  E       Q    E
|--8--8---8--8-------8----8-|
|--8--8---8--8-------8----8-|
|--9--9---9--9-------9----9-|
|---------------------------|
|---------------------------|
|---------------------------|
|
| +Q    E E  E      +E  E E
|---------------------------|
|-(8)---8-8-10pb12r(10)-8-8-|
|---------------------------|
|---------------------------|
|---------------------------|
|---------------------------|


  G
   E       E  E  E       Q    E  E    +E  E E E  E    Q   E
|--7-------7--7----------7----7--7-|--(7)-7-7-7--7----7---7-|
|--8-------8--8----------8----8--8-|--(8)-8-8-8--8----8---8-|
|--7-------7--7----------7----7--7-|--(7)-7-7-7--7----7---7-|
|----------------------------------|------------------------|
|----------------------------------|------------------------|
|----------------------------------|------------------------|
|
|                                ~~~~~~~~~
|  E      +E  E  E      +Q    E  E    +Q    E E  Q      Q
|----------------------------------|--------7-7---------7---|
|-10pb12r(10)-8-10b12==(10)r----10-|-(10)-------10b12-------|
|----------------------------------|------------------------|
|----------------------------------|------------------------|
|----------------------------------|------------------------|
|----------------------------------|------------------------|


  C
   E    E  E    E  Q          E S S
|--7----7--7----7--7----------7-8-8-|
|--8----8--8----8--8----------8-8-8-|
|--7----7--7----7--7----------7-9-9-|
|-----------------------------------|
|-----------------------------------|
|-----------------------------------|
|
|  Q       Q       E      +E  E E
|-----------------------------------|
|-10b12---10b12---10pb12r(10)-8-8---|
|-----------------------------------|
|-----------------------------------|
|-----------------------------------|
|-----------------------------------|


                               D             G
   E  Q   E  E       E  E  E    E  E  Q       E E E E
|--8--8---8--8-------8--8--8-|-10-10-10-------7-7-7-7-||
|--8--8---8--8-------8--8--8-|-10-10-10-------8-8-8-8-||
|--9--9---9--9-------9--9--9-|-11-11-11-------7-7-7-7-||
|----------------------------|------------------------||
|----------------------------|------------------------||
|----------------------------|------------------------||
|
| +E  E E E  E      +E  E  E    E  E  E    E  E E Q
|----------------------------|------------------------||
|-(8)-8-8-8-10pb12r(10)-8-10-|-10-10-10b12---10p8-----||
|----------------------------|------------------------||
|----------------------------|------------------------||
|----------------------------|------------------------||
|----------------------------|------------------------||


 4th Verse
  G5                                  C5                G5
  Gtr I
  PM------------------------------------------------------------------|
  E E E E E E E E   E E E E E E E E   E E E E E E E E   E E E E E E E E
|-----------------|-----------------|-----------------|-----------------|
|-----------------|-----------------|-----------------|-----------------|
|-----------------|-----------------|-5-5-5-5-5-5-5-5-|-----------------|
|-5-5-5-5-5-5-5-5-|-5-5-5-5-5-5-5-5-|-5-5-5-5-5-5-5-5-|-5-5-5-5-5-5-5-5-|
|-5-5-5-5-5-5-5-5-|-5-5-5-5-5-5-5-5-|-3-3-3-3-3-3-3-3-|-5-5-5-5-5-5-5-5-|
|-3-3-3-3-3-3-3-3-|-3-3-3-3-3-3-3-3-|-----------------|-3-3-3-3-3-3-3-3-|


                                      C5                D5      G5
  PM----------------------------------------------------------|
  E E E E E E E E   E E E E E E E E   E E E E E E E E   E E E E E E E E
|-----------------|-----------------|-----------------|-----------------||
|-----------------|-----------------|-----------------|-----------------||
|-----------------|-----------------|-5-5-5-5-5-5-5-5-|-7-7-7-7---------||
|-5-5-5-5-5-5-5-5-|-5-5-5-5-5-5-5-5-|-5-5-5-5-5-5-5-5-|-7-7-7-7-5-5-5-5-||
|-5-5-5-5-5-5-5-5-|-5-5-5-5-5-5-5-5-|-3-3-3-3-3-3-3-3-|-5-5-5-5-5-5-5-5-||
|-3-3-3-3-3-3-3-3-|-3-3-3-3-3-3-3-3-|-----------------|---------3-3-3-3-||


 Chorus
  G                                   C                 G
  E E E E E E E E   E E E E E E E E   E E E E E E E E   E E E E E E E E
|-3-3-3-3-3-3-3-3-|-3-3-3-3-3-3-3-3-|-----------------|-3-3-3-3-3-3-3-3-|
|-3-3-3-3-3-3-3-3-|-3-3-3-3-3-3-3-3-|-5-5-5-5-5-5-5-5-|-3-3-3-3-3-3-3-3-|
|-4-4-4-4-4-4-4-4-|-4-4-4-4-4-4-4-4-|-5-5-5-5-5-5-5-5-|-4-4-4-4-4-4-4-4-|
|-5-5-5-5-5-5-5-5-|-5-5-5-5-5-5-5-5-|-5-5-5-5-5-5-5-5-|-5-5-5-5-5-5-5-5-|
|-5-5-5-5-5-5-5-5-|-5-5-5-5-5-5-5-5-|-3-3-3-3-3-3-3-3-|-5-5-5-5-5-5-5-5-|
|-3-3-3-3-3-3-3-3-|-3-3-3-3-3-3-3-3-|-----------------|-3-3-3-3-3-3-3-3-|


                                    C                 D       G
  E E E E E E E E   Q  Q  E E E E   E E E E E E E E   E E E E Q  Q
|-3-3-3-3-3-3-3-3-|-3--3--3-3-3-3-|-----------------|---------3--3--||
|-3-3-3-3-3-3-3-3-|-3--3--3-3-3-3-|-5-5-5-5-5-5-5-5-|-7-7-7-7-3--3--||
|-4-4-4-4-4-4-4-4-|-4--4--4-4-4-4-|-5-5-5-5-5-5-5-5-|-7-7-7-7-4--4--||
|-5-5-5-5-5-5-5-5-|-5--5--5-5-5-5-|-5-5-5-5-5-5-5-5-|-7-7-7-7-5--5--||
|-5-5-5-5-5-5-5-5-|-5--5--5-5-5-5-|-3-3-3-3-3-3-3-3-|-5-5-5-5-5--5--||
|-3-3-3-3-3-3-3-3-|-3--3--3-3-3-3-|-----------------|---------3--3--||


   Outro Sax Solo
      G                                         C               G
      E Q  E   +E  E E E     +E  E E E Q  E E   E Q  E E Q  E   E E E E Q  E E
||----7-7--7---(7)-7-7-7-|---(7)-7-7-7-7--7-7-|-8-8--8-8-8--8-|-7-7-7---7--7-7-|
||o---8-8--8---(8)-8-8-8-|---(8)-8-8-8-8--8-8-|-8-8--8-8-8--8-|-8-8-8---8--8-8-|
||----7-7--7---(7)-7-7-7-|---(7)-7-7-7-7--7-7-|-9-9--9-9-9--9-|-7-7-7---7--7-7-|
||-----------------------|--------------------|---------------|----------------|
||o----------------------|--------------------|---------------|----------------|
||-----------------------|--------------------|---------------|----------------|
|
|   Gtr II
|   a E Q  E a  E  E E E   a  E  E E E Q  Q     E Q  E E Q  E   E E E E Q  E E
||-----------------------|--------------------|---------------|----------------|
||o----------------------|--------------------|---8--8---8--8-|----------------|
||------7--7-------7-7-7-|-------7-9---7--7---|-9------9------|-9-7-7---7--7-7-|
||--8s9------8h=9--------|-8h=9------9--------|---------------|-------9--------|
||o----------------------|--------------------|---------------|----------------|
||-----------------------|--------------------|---------------|----------------|


    +E    E E E    E    Q    E
|---(7)---7-7-7----7----7----7----|
|---(8)---8-8-8----8----8----8----|
|---(7)---7-7-7----7----7----7----|
|---------------------------------|
|---------------------------------|
|---------------------------------|
|
| a  E    E E E a  E    Q    E
|---------------------------------|
|---------------------------------|
|---------7-7-7---------7----7----|
|-8h=9----------8h=9--------------|
|---------------------------------|
|---------------------------------|
|
| Gtr III
|    Q      Q      Q      E  E
|---10------------10--------10----|
|---10b12---------10b12-----10b12-|
|---------------------------------|
|---------------------------------|
|---------------------------------|
|---------------------------------|


                                       C
     E      E  E  E       Q       E      E      E Q    E         E    E  E  E
|----7------7--7--7-------7-------7------8--|---8-8----8---------8----8--8--8-|
|----8------8--8--8-------8-------8------8--|---8-8----8---------8----8--8--8-|
|----7------7--7--7-------7-------7------9--|---9-9----9---------9----9--9--9-|
|-------------------------------------------|---------------------------------|
|-------------------------------------------|---------------------------------|
|-------------------------------------------|---------------------------------|
|
| a  E      E  E  E       Q       Q           a E E E  E     a   E    E  E  E
|-------------------------------------------|---------------------------------|
|-------------------------------------------|-----8-8--8----------------------|
|-----------7--9----------7-------7---------|-7h9------------7h==9----7--7--7-|
|-8h=9------------9-------------------------|---------------------------------|
|-------------------------------------------|---------------------------------|
|-------------------------------------------|---------------------------------|
|
|    E     +E  E  E      +E    E  E     +E      Q   E  E        +E   +E  E  E
|---10----(10)---10-----(10)--10-10----(10)-|---------10-------(10)-(10)------|
|---10b12r(10)-8-10b12==(10)r----10b12r(10)-|---8---8-10b12====(10)r(10)-8-10-|
|-------------------------------------------|---------------------------------|
|-------------------------------------------|---------------------------------|
|-------------------------------------------|---------------------------------|
|-------------------------------------------|---------------------------------|


  1.                              2.
  D                   G            C                   G/D
   E     E  Q          E E E E      E     E  Q         H      +W
|-10----10-10----------7-7-7-7--||-10----10-10---------7----|-(7)----*|
|-10----10-10----------8-8-8-8-o||-10----10-10---------8----|-(8)----*|
|-11----11-11----------7-7-7-7--||-11----11-11---------7----|-(7)----*|
|-------------------------------||--------------------------|--------*|
|------------------------------o||--------------------------|--------*|
|-------------------------------||--------------------------|--------*|
|
|  E     E  E      E   E E Q        Q        E     +E  H      +W
|-------------------------------||--------------------------|--------*|
|-10----10-10b12------10p8-----o||-10-------10b12r(10)-8----|-(8)----*|
|-------------------------------||--------------------------|--------*|
|-------------------------------||--------------------------|--------*|
|------------------------------o||--------------------------|--------*|
|-------------------------------||--------------------------|--------*|
|
|       Gtr III
|  Q        E     +E   H            Q        E     +E  H      +W
|-10-------10----(10)-----------||-10-------10----(10)------|--------*|
|-10b12----10b12r(10)--8-------o||-10b12----10b12r(10)-8----|-(8)----*|
|-------------------------------||--------------------------|--------*|
|-------------------------------||--------------------------|--------*|
|------------------------------o||--------------------------|--------*|
|-------------------------------||--------------------------|--------*|


Duration Legend
---------------
W - whole; H - half; Q - quarter; E - 8th; S - 16th; T - 32nd; X - 64th; a - acciaccatura
+ - note tied to previous; . - note dotted; .. - note double dotted
Uncapitalized letters represent notes that are staccato (1/2 duration)
Irregular groupings are notated above the duration line
Duration letters will always appear directly above the note/fret number it represents the
duration for.  Duration letters with no fret number below them represent rests.  Multi-
bar rests are notated in the form Wxn, where n is the number of bars to rest for.  Low
melody durations appear below the staff

Tablature Legend
----------------
 h   - hammer-on
 p   - pull-off
 b   - bend
 pb  - pre-bend
 r   - bend release (if no number after the r, then release immediately)
 /\  - slide into or out of (from/to "nowhere")
 s   - legato slide
 S   - shift slide
  - natural harmonic
[n]  - artificial harmonic
n(n) - tapped harmonic
 ~   - vibrato
 tr  - trill
 T   - tap
 TP  - trem. picking
 PM  - palm muting
\n/  - tremolo bar dip; n = amount to dip
 \n  - tremolo bar down
 n/  - tremolo bar up
/n\  - tremolo bar inverted dip
 =   - hold bend; also acts as connecting device for hammers/pulls
 <>  - volume swell (louder/softer)
 x   - on rhythm slash represents muted slash
 o   - on rhythm slash represents single note slash

Misc Legend
-----------
 |  - bar
||  - double bar
||o - repeat start
o|| - repeat end
*|  - double bar (ending)
 :  - bar (freetime)
 $  - Segno
 &  - Coda
Tempo markers -  = BPM(8/16=s8/s16), where s8 = swing 8ths, s16 = swing 16ths
 
 
Bruce Springsteen - Cadillac Ranch Tab :: indexed at Ultimate Guitar.
Cadillac Ranch tabs @ 911Tabs

About the artist behind Cadillac Ranch Tab:

Bruce Frederick Joseph Springsteen (born September 23, 1949) is an American songwriter, singer and guitarist. He has recorded and toured with the E Street Band. Springsteen is widely known for his brand of heartland rock infused with pop hooks, poetic lyrics, and Americana sentiments centered around his native New Jersey. His eloquence in expressing ordinary, everyday problems has earned him numerous awards, including eighteen Grammy Awards and an Academy Award, along with a notoriously dedicated and devoted global fan base. His most famous albums, Born to Run and Born in the U.S.A., epitomize his penchant for finding grandeur in the struggles of daily life. He has sold over 65 million albums in the U.S.[1]

Springsteen's lyrics often concern men and women struggling to make ends meet. He has gradually become identified with progressive politics. Springsteen is also noted for his support of various relief and rebuilding efforts in New Jersey and elsewhere, and for his response to the September 11, 2001 attacks, on which his album The Rising reflects.

Springsteen's recordings have tended to alternate between commercially accessible rock albums and somber folk-oriented works. Much of his iconic status stems from the concerts and marathon shows in which he and the E Street Band present intense ballads, rousing anthems, and party rock and roll songs, amongst which Springsteen intersperses long, whimsical or deeply emotional stories.

Springsteen has long had the nickname "The Boss", a term which he was initially reported to hate but now seems to have come to terms with, as he sometimes jokingly refers to himself as such on stage. The nickname originated when a young Springsteen, playing club gigs with a band in the 1960s, took on the task of collecting the band's nightly pay and distributing it amongst his bandmates.[2]

Indexed at Wikipedia.

Show us your talent, perform Cadillac Ranch Tab!

Here you can post a video or audio performance. Tell me more ...
Where can we find your performance? Tell me more ...
Your comment:
Please, log in to post your performance.